Só Se For Gelada

Aviões do Forró

 Aviões do Forró
Tom: C
		
Intro: Am.



E|-12-11-12---8/10-8-7-8-10-8-7-8-|-7/8-7-5-7-8--------|
B|--------------------------------|-------------10-----|
G|--------------------------------|--------------------|
D|--------------------------------|--------------------|
A|--------------------------------|--------------------|
E|--------------------------------|--------------------|



E|-7/8-7-5---------------------------------------------|
B|---------8-6-5-3-5--5-3-5--5-3-5---------------------|
G|-----------------------------------------------------|
D|-----------------------------------------------------|
A|-----------------------------------------------------|
E|-----------------------------------------------------|


Am
Gato bebe leite

Meu pai toma chá

Vovô só no azeite
    				F
E eu não largo uma loira gelada

		C
Tem que ser gelada
 	        G
Tem que ta nevada
 		Am
Não pode espumar
 					F
Por isso que eu sou louco por uma loira gelada
 	       C
Tem que ta gelada
 	       G
Tem que ta nevada
 		Am
Não pode espumar

(Intro)

Am
Onça bebe água

Mamãe toma café

Vovó bebe garapa
				F
E eu já to doidão pra tomar me  me
		C
Vamo tomá me  vem
 	    G
Bebe sem migué
 	       Am
Eu não arredo o pé
 				         F
Por isso que eu to doidão de tanto tomar  quer
 	      C
Quer  vem tomá me
 	    G
Bebo sem migué
 	       Am
Eu não arredo o pé
31.023 exibições

Comentários 0

Composição: Sabe quem é o compositor? Envie pra gente. Contribuição: vinisanguinete Correções: Aldo Papeleiro e mais 1 »
Exibir acordes »
publicidade
fechar