Ziriguidum

Aviões do Forró

 Aviões do Forró
Tom: F#
		
Intro:

E|-------6666--|
B|-77776-----4-|
G|-------------|
D|-------------|
A|-------------|
E|-------------|


Ebm         Db          Ebm         Db
Ziriguidum, ziriguidum, ziriguidum, ziriguidum
Ebm         Db          Ebm         Db
Ziriguidum, ziriguidum, ziriguidum, ziriguidum
    Ebm Db     B      Bbm
Rebolou vem no ziriguidum
    Ebm Db            Ebm
Rebolou vem no ziriguidum

Balançar…
   Ebm   Db      B     Bbm
Eu gos...to da nega mulata
   Db    B       Bbm      Abm
Eu gos...to da nega que samba
           Ebm
O pé faz assim,
              Bbm
mãozinha pro lado,
              Db
Balança o pescoço,
             Ebm
pra lá e pra cá…
Ebm         Db          Ebm         Db
Ziriguidum, ziriguidum, ziriguidum, ziriguidum
Ebm         Db          Ebm         Db
Ziriguidum, ziriguidum, ziriguidum, ziriguidum

Solo:


E|----------------------------------------------------------------------|
B|-------11------11-9-9--12-12-11---------------11----11-9-9------------|
G|--8--11--11------------------------------8--11--11---------7-7-8------|   (2x)
D|----------------------------------------------------------------------|
A|----------------------------------------------------------------------|
E|----------------------------------------------------------------------|



E|-------------11-9-9---------------------------------------------------|
B|-------11-----------12-12-11------------------11----11-9-9------------|
G|--8--11--11------------------------------8--11--11---------7-7-8------|    (2x)
D|----------------------------------------------------------------------|
A|----------------------------------------------------------------------|
E|----------------------------------------------------------------------|
31.229 exibições

Comentários 1

Composição: Sabe quem é o compositor? Envie pra gente. Contribuição: KB Correções: junior e mais 2 »
Exibir acordes »
publicidade
fechar