When You're Gone

Avril Lavigne

 Avril Lavigne
When You're Gone
The Best Damn Thing
2007 RCA Records
Submitted by: *

Bass tab: This is AL BERRY(Av's bassist) played if you listen carefully!!!

Key: G

Tuning: Standard EADG

Chorus:
G|------------------------------------------------------------------|
D|------------------------------------------------------------------|
A|-3--7--5--3--7p5h7--5-5p2h5--0-0-0-0-3-3-3-3-----------------3--5-|
E|---------------------------------------------3-3-3-3-2-2-2-2------|


Post Chorus: While doing piano
G|-------------------------------0-2-4-5-0---------------------------------|
D|-------------------------2p0h2-------------------------------------------|
A|-3-3-3-3---------3-3-3-3-----------------3-3-3-3---------5-5-5-5-5-5-5-5-|
E|---------0-0-0-0---------------------------------0-0-0-0-----------------|


Verse 2:
G|---------------------------------------------------------|
D|-----------------------------------------0-0-0-0-2-4-2-0-|
A|-------------------------3-3-3-3-3-3-3-3-----------------| (x2)
E|-3-3-3-3-2-2-2-2-0-0-0-0---------------------------------|


Refrain:
G|-----------------------------------------------------7-|
D|---------------------------------------------------7---|
A|-0-0-0-0-0-0-0-0-2-2-2-2-2-2-2-2-3-3-3-3-3-3-3-3-5-----|
E|-------------------------------------------------------|


Bridge: We are made for each other...
G|-----------4---4-|-----------5---5-|-----------7---4-|-----------------|
D|---------4---4---|---------5---5---|-5-5-5-5-5---5---|-----------------|
A|-2-2-2-2---------|-3-3-3-3---------|-----------------|-5-5-5-5-6-6-6-6-|
E|-----------------|-----------------|-----------------|-----------------|


I know that ever wanted was for you to know...
G|-----------------------------------------------------------------|
D|---------4-4-5-5---------4-4-5-5---------4-4-5-5-----------------|
A|-7-7-7-7---------3-3-3-3---------4-4-4-4---------5-5-5-5-9-9-9-9-|
E|-----------------------------------------------------------------|

Comentários 0

Composição: Butch Walker / Leahy / Teddy Gentry
Esse não é o compositor? Avise-nos.
publicidade
fechar