Dont Say Goodbye

Axel Rudi Pell

 Axel Rudi Pell
Tom: C
		
Tabbed by: Leakbox
Email: *

Tuning: Down 1/2 step

This song is only on the "Ballads #3" disk.  It absolutely ROCKS.  Don't have the solo
but someone should be able to add it.  What I have here is dead on.

Intro

   Am   G   Dm  Am  Am   G  Am


e|----0-3------1--0-----0-3-----0------------------------------------------------|
B|---1--0-----3-3-1----1--0----1-------------------------------------------------|
G|--2---0----2----2---2---0---2--------------------------------------------------|
D|-2----0--0------2--2----0--2---------------------------------------------------|
A|0-----2---------0-0-----2-0----------------------------------------------------|
E|------3---------x-------3------------------------------------------------------|


  Am             G      Dm                 Am     Am   G
   On a cloudy night I looked outside the window       Seeing faces disappear

e|----0----------3---------1----------------0--------0-3---------------------0|
B|---1-----------0--------3-3---------------1-------1--0--------------------1-|
G|--2------------0-------2------------------2------2---0-------------------2--|
D|-2-------------0------0-------------------2-----2----0------------------2---|
A|0--------------2--------------------------0----0-----2-----------------0----|
E|---------------3--------------------------x----------3----------------------|


Repeat above for remainder of verse and verse 2

    Am                   G               Dm               Am
The wheels of time are turning through endless days and nights
    Am         G             Am
I'm hiding my face from the light

Am      G          Dm               Am
Holding on to the two sides of the coin
       Am        G                Am
I'm blinded by lies too late to return
Am        G        Dm             Am
Late at night the fire starts to burn
         Am         G                 Am
I'm a prisoner of flames will I ever learn


Bridge 1
F             G
We're falling in and out of love
Dm                  G
Calling our hearts tears from heaven


Chorus (This is hard electric power chords)

C            G     Dm       Am
Don't say goodbye love is forever
F      C           G
And I need you to stay
C            G     Dm               Am
Don't say goodbye we're so strong together
F       C             G
Don't leave me this way......

Verse three and bridge #2 are the same as above:

Am     G  Dm                Am          Am     G                   Am
On and on we searched for fools' gold pulling down the trigger of love
Am    G          Dm          Am   Am       G                Am
Any chance we had is passing by just too late for another try
F                    G
Lonely hearts lost fires in the night
     Dm                     G
The end of our romance in sight...


Repeat chorus

The solo is played over the chords from the chorus and then the bridge.  The remainder 
just repeated.

Rock on....
1.255 exibições

Comentários 0

Composição: Axel Rudi Pell / Toni Garrido / Troy Verges
Esse não é o compositor? Avise-nos.
Exibir acordes »
publicidade
fechar