Só Mais Uma Vez

B5

 B5
Tom: C#
		
Riff 1 (Introdução) 2x


E|--------------2-1-1--|duas vezes na intro
B|-2-2-2-2-2-2-----4---|
G|--1-1-1-1-1-1--------|
D|---------------------|
A|---------------------|
E|---------------------|


Riff 2 (para tocar com ele cantando)


E|-----------------------------|
B|-2-2-2-2-2-2-2-2-4-4---------|
G|--1-1-1-1-1-1-1-1------------|
D|-----------------------------|
A|-----------------------------|
E|-----------------------------|



[Intro:] C#

Bbm	       C#   F#		      Bbm
Parece que foi ontem que tudo terminou
	        C#  F#		   Bbm
E todo tempo é pouco nada modificou
     C#        F#		  		   Bbm
Então ficou e todo aquele instante nada se explicou
     C#       F#
Então pirou e uma parte inteira não se conformou

    Bbm	     C#      F#
E assim pra mim não si desfez
  Bbm	   C#   	F#
O fim que ainda é o que eu não sei
     C#        G#/C    F#
Pra sempre eu quis te ter
	     C#
Só mais uma vez

Olhando nos teus olhos eu pude perceber
Quem sabe nos teus sonhos eu possa a te viver
Então ficou e todo aquele tempo nada se explicou
Então pirou e uma parte inteira não se conformou

Solo: C# G#/C Bbm G# F# G# C#

    Bbm	     C#      F#
E assim pra mim não si desfez
  Bbm	   C#   	F#
O fim que ainda é o que eu não sei
     C#        G#/C    F#
Pra sempre eu quis te ter

	     C# G#/C
Só mais uma vez
 	     F#
Só mais uma vez
	     C# G#/C
Só mais uma vez
 	     F#
Só mais uma vez

Comentários 1

  • Rafael Rafael: Postado em 17/07/2014 12:55

    esse refrão ai é mto alto a tonalidade ! só B5 msm pra cantar ... embora o instrumental seja fácil !

Composição: C.H.
Esse não é o compositor? Avise-nos.
Contribuição: Graft.sk8t Correções: samrodriguez e mais 2 »
Exibir acordes »
publicidade
fechar