Amor Perfeito

Babado Novo

 Babado Novo
Tom: D
		
(intro) Bm7 Em A7 Bm7 A7 G Gm E4 E/D


E|--------------------------------------------------|
B|----------7-7h8-7---------------------------------|
G|------7-9---------9-7-7h9-7-6-------7h9-7---------|
D|--/9-------------------------9-7----------9-7-----|
A|----------------------------------9---------------|
E|--------------------------------------------------|



E|-------------------------------10-----------------|
B|--8---8-8-8-8--10b11r10-8--------10--10~~---------|
G|-----7-7-7-7---------------7----------------------|
D|--------------------------------------------------|
A|--------------------------------------------------|
E|--------------------------------------------------|


                     A7+                 E4 E              A7+
Fecho os olhos pra não ver passar o tempo, sinto falta de você
E4 E              A7+               E4 E                   A7+
Anjo bom amor perfeito no meu peito, sem você não sei viver

A7+ Bbm   Bm                    Em7                         A7
Então,   vem que eu conto os dias conto as horas pra te ver
        F#m7  F#7      Bm7
Eu não consigo te esquecer
       Em7                    A7        Bm    E4 E/D
Cada minuto é muito tempo sem você, sem você
                A7+                E4 E                  A7+
Os segundos vão passando lentamente, não tem hora pra chegar
E4 E              A7+               E4 E                   A7+
Até quando te amando, te querendo, coração que te encontrar
A7+ Bbm  Bm            Em7                    A7
Então, vem que nos meus braços esse amor é uma canção
          F#m7  F#7      Bm7
E eu não consigo te esquecer
      Em7                      A7         G  A G/B A/C#
Cada minuto é muito tempo sem você, sem vocêeeeee
 D           G            A
Eu não vou saber me acostumar
         F#m7     F#7   Bm7
Sem suas mãos pra me acalmar
          Em7              G
Sem seu olhar pra me entender
          Em7     A7        D
Sem seu carinho, amor sem você
        G            A
Vem me tirar da solidão
        F#m7  F#7   Bm7
Fazer feliz meu coração
           Em7         G
Já não importa quem errou
        G         A        D
O que passou, passou, então vem

(repete tudo)

Comentários 0

Composição: Robson Jorge / Lincoln Olivetti / Paulo Massadas / Michael Sullivan
Esse não é o compositor? Avise-nos.
Contribuição: Sophia Correções: Luanzitcho , Biéeh e mais 4 »
Exibir acordes »
publicidade
fechar