Doce Desejo

Babado Novo

 Babado Novo
Tom: G#
		
Intro: Ab Bbm C# Eb

  Ab
e|---------------------------------------------------------------------------------|
B|-4/6--5-----------5------4/6--5-----------5------4/6--5----------------6-5-6--5--|
G|---------7--5--7-----5~----------7--5--7-----7~-----------7--5--7---------7------|
D|---------------------------------------------------------------------------------|
A|---------------------------------------------------------------------------------|
E|---------------------------------------------------------------------------------|


		 Ab			Bbm
Tá no jeito de olhar, Ta no gosto do beijo
		      C#			Eb
Na expressão do sorriso, ta no meu paraiso
		Ab
No meu doce desejo

		  Ab			Bbm
Ta no cheiro da flor, estampado na cara
		 C#		   Eb
Ta na força do amor, na beleza da cor
		    Ab
Ta pulsando e não pára

	 Ab7	   	C#               C#m
	|Meu amor é só seu, Seu amor é só meu
			Cm   Fm
	|Nosso amor é assim
 2x			Bbm			Eb
	|Eu só sei te querer, tambem sei que voce
			   Ab   Ab7
	|Só tem olhos pra mim

(Solo:Doce desejo->

e|---------------------------------------------------------------------------------|
B|-4/6--5-----------5------4/6--5-----------5------4/6--5----------------6-5-6--5--|
G|---------7--5--7-----5~----------7--5--7-----7~-----------7--5--7---------7------|
D|---------------------------------------------------------------------------------|
A|---------------------------------------------------------------------------------|
E|---------------------------------------------------------------------------------|



(Reptir a música do inicio até o final)
menos a intro,e o solo.
                 Ab
Tá no jeito de olhar,tá no jeito,tá no jeito de olhar
                  Bbm
Tá no gosto do beijo,no gosto,no gosto do beijo
                    C#                 Eb 
na expressão do sorriso,tá no meu paraiso no meu
          Ab                                            
gosto desejo,
 
Ab                Bb
Tá no cheiro da flor,Tá na força do amor 
              Cm                    
estampado na cara,estampado na minha cara, 
                 Eb                F 
Tá na força do amor,na beleza da cor,
                    Bb
Tá pulsando e não para

obs:vcs podem ouvir a música e perceber,
que na segunda vez que ele faz o solo,ele bate
4 vezes na corda B antes de fazer o solo normal,
ouçam a música e verão.

74.950 exibições

Comentários 0

Composição: Bruno / Felipe / Falcão
Esse não é o compositor? Avise-nos.
Contribuição: Nick Correções: accioly e mais 2 »
Exibir acordes »
publicidade
fechar