Menino do Rio

Baby Consuelo

 Baby Consuelo Compositor: Caetano Veloso
Tom: G
		

E|---------------------------------|
B|---------------------------------|
G|---------------------------------|
D|-----12----12----12-----12----12-| Riff 1
A|---10----10----10-----10----10---|
E|-12----12----12-----12----12-----|



E|---------------------------------|
B|---------------------------------|
G|---------------------------------|
D|-----11----11----11-----11----11-| Riff 2 
A|---10----10----10-----10----10---|
E|-11----11----11-----11----11-----|

 

E|---------------------------------|
B|---------------------------------|
G|---------------------------------|
D|-----10----10----10-----10----10-| Riff 3 
A|---10----10----10-----10----10---|
E|10----10----10-----10----10------|



E|---------------------------------|
B|---------------------------------|
G|---------------------------------|
D|----10---10----10----10-----10---| Riff 4
A|--10---10----10----10-----10-----|
E|-8----8-----8-----8------8-------|


(Repetir 2x)

E
 Menino do Rio

 Calor que provoca arrepio
F#m         B7
 Dragão tatuado no braço
F#m              B7
 Calção, corpo aberto no
    espaço
 Bm7     E7             A7+
 Coração,  de eterno flerte
           Am
 Adoro ver-te

E
 Menino vadio

 Tensão flutuante do Rio
F#m          B7
Eu canto pra Deus
       E
 Proteger-te

 G#m  C#7 		F#7  F#m7
 O Havaí,      seja aqui
B7            E
 o que tu sonhares
C#7         F#m7
Todos os lugares,
             G#m
 As ondas dos mares
C#7                 C
 Pois quando eu te vejo
Eu desejo teu desejo

E
 Menino do Rio

 Calor que provaca arrepio
F#m          B7
 Toma esa canção
          E   B7
 Como um beijo


E|---------------------------------|
B|---------------------------------|
G|---------------------------------|
D|-----12----12----12-----12----12-| Riff 1
A|---10----10----10-----10----10---|
E|-12----12----12-----12----12-----|



E|---------------------------------|
B|---------------------------------|
G|---------------------------------|
D|-----11----11----11-----11----11-| Riff 2 
A|---10----10----10-----10----10---|
E|-11----11----11-----11----11-----|

 

E|---------------------------------|
B|---------------------------------|
G|---------------------------------|
D|-----10----10----10-----10----10-| Riff 3 
A|---10----10----10-----10----10---|
E|10----10----10-----10----10------|



E|---------------------------------|
B|---------------------------------|
G|---------------------------------|
D|----10---10----10----10-----10---| Riff 4 
A|--10---10----10----10-----10-----|
E|-8----8-----8-----8------8-------|


(Repetir 2x)

(Para finalizar a música, repita o solo completo uma terceira vez pulando o Riff 3 e fando o Riff 4 duas vezes)
10.564 exibições

Comentários 1

  • ananitzke ananitzke: Postado em 07/08/2013 14:48

    Gostaria que me enviassem por e-mail o solo de Menino do Rio

Composição: Caetano Veloso / Lamenga Kafi
Esse não é o compositor? Avise-nos.
Contribuição: tony Salgado Correções: Luciano e mais 1 »
Consegui tocarAinda não conseguiram tocar essa música. Seja o primeiro!
    Não consegui tocar
    Exibir acordes »
    publicidade
    fechar