As Long As You Love Me

Backstreet Boys

 Backstreet Boys
Tom: C
		

E|------------------------------------------
B|--6-6-5-3-5---5-6-8-----------------------
G|--------------------5--------5-7-7/9-5----
D|---------------------------7--------------
A|------------------------------------------
E|------------------------------------------


These other 2 riffs are played randomly in parts of the song

E|------------------------------------------
B|--6-6-5-3-5---5-6-8-----------------------
G|--------------------5/7-5----5-7-7/9-5----
D|---------------------------7--------------
A|------------------------------------------
E|------------------------------------------



E|------------------------------------------
B|--6-6-5-3-5---5-6-8-----------------------
G|--------------------5-----5-7-7/9-5-4-5---
D|------------------------7-----------------
A|------------------------------------------
E|------------------------------------------


This riff is played during the intro

E|------------------------------------------
B|--6-6-5-3-5---5-6-8-----------------------
G|--------------------5--------5-7-7/9-5----
D|---------------------------7--------------
A|------------------------------------------
E|------------------------------------------


These other 2 riffs are played randomly in parts of the song

E|------------------------------------------
B|--6-6-5-3-5---5-6-8-----------------------
G|--------------------5/7-5----5-7-7/9-5----
D|---------------------------7--------------
A|------------------------------------------
E|------------------------------------------



E|------------------------------------------
B|--6-6-5-3-5---5-6-8-----------------------
G|--------------------5-----5-7-7/9-5-4-5---
D|------------------------7-----------------
A|------------------------------------------
E|------------------------------------------


Intro:  F  C  Am  G4  G      F  C  Am  G4  G

         Am                           F
Although loneliness has always been a friend of mine
    G                       C      G
I'm leaving my life in your hands
Am                            F
People say I'm crazy and that I am blind
G                   C       G
Risking it all in a glance
Am                              F
How you got me blind is still a mystery
  G                       C    G
I can't get you out of my head
Am                                 F
Don't care what is written in your history
   G                        C
As long as you're here with me
               F            C                       Am            G4          G
  I don't care who you are, where you're from // What you did, as long as you love me
  F            C                                   Am           G4          G
  Who you are, where you're from, // Don't care what you did as long as you love me
Am                               F
Every little thing that you have said and done
G                           C   G
Feels like it's deep within me, hm__hm, hm
Am                              F
Doesn't really matter if you're on the run
   G                         C
It seems like we're meant to be
               F            C
  I don't care who you are, where you're from
     Am            G4          G
  What you did, as long as you love me (I don't know!)
  F            C
  Who you are, where you're from,
                 F    C      Dm          G4   G          F:
  Don't care what you did as long as you love me, yeah___ah_ah

=Intro:  :F  C  Am     G4          G       F  C  Am    F           E7
                    As long as you love me    //    As long as you love me
Am                         C/G
  I try to hide it so that no one knows
        F                       F      G     Am
  But I guess it shows when you look into my eyes
                                C/G                  F#m7/5-
  What you did and where you're coming from (I don't care__)
     F7+         G          F                C         Am           G4
  As long as you love me, baby_, hoo___hoo___ ,hoo__oo___oo__oo__oo
  G          F            C                       Am            G4          G
I don't care who you are, where you're from // What you did, as long as you love me
F            C                                    F    C      Dm          G4   G
Who you are, where you're from, // Don't care what you did as long as you love me
F         C                 Am               G4      G           F
  Who you are, where you're from // What you did, as long as you love me
          C                    F               C             Dm          G4   G
  Who you are, where you're from (where you're from)  //  As long as you love me
  F       C       Dm          G4    G
  Who you are, as long as you love me
      F    C             Dm        G4      G   C*_
  What you did, (I don't care), as long as you love me

Comentários 2

  • Thaís Thaís: Postado em 18/11/2014 14:43

    Concordo, música linda! Bom de tocar com outra pessoa: uma na base e outra nos solinhos e dedilhados

  • deia.aline deia.aline: Postado em 04/06/2012 11:39

    musica linda

Composição: Max Martin
Esse não é o compositor? Avise-nos.
Contribuição: xDigokuromoto Correções: trilla , ralf_nx e mais 2 »
Exibir acordes »
publicidade
fechar