Incomplete Acoustic

Backstreet Boys

 Backstreet Boys
Tom: E
		
Incomplete (Acoustic)
Tabbed by:Eric

Tuning: E Standard Tunning

Chords

F#m - 244222

E|- 022100

C#m - x466544 or (9 11 11 9 9 9)

B|- x24442 or (799877)

A|- x02220


Intro:


      F#m    E     E         F#m         E     E
E|---------------------------------------------------------------------------|
B|---------------------------------------------------------------------------|
G|----2-----1-----1----------2----2-----1-----1------------------------------|
D|---4-4---2-2---2-2-2-1-1---4---4-4---2-2---2-2-2-1-1-----------------------|
A|--4-----2-----2----------4-4--4-----2-----2----------2--4------------------|
E|-2-----0-----0-------------2-2-----0-----0---------------------------------|


Verso 1:

F#m      C#m
Empty spaces
E                 B
Fill me up with holes
F#m        C#m        E
Distant faces
         B
With no place left to go
F#m              C#m
Without you within me
E       B
I can't find no rest
F#m           C#m    E        B        A
Where I'm going        is anybody's guess

Refrão:

C#m/ E
I've tried
  B                        A
To go on like I never knew you
C#m/ E
I'm awake
B
But my world is half asleep
C#m/ E
I pray
          B
For this heart to be unbroken
     A                  C#m         B
But without you all I'm going to be is
Incomplete

Pós-Refrão: F#m  C#m  E  B

Verso 2 (Mesma melodia do Verso 1)

Voices tell me
I should carry on
But I am swimming
In an ocean all alone
Baby, my baby->
It's written on your face
You still wonder
If we made a big mistake

(Refrão)

	A
Incomplete

Ponte:

C#m                      B
I don't mean to drag it on
B                           A
But I can't seem to let you go
C#m	             B	                      F#m
I don't wanna make you face this world aloooone

Intro e Pós-Refrão:


E|---------------------------------------------------------------------------|
B|---------------------------------------------------------------------------|
G|----2-----1-----1----------2----2-----1-----1------------------------------|
D|---4-4---2-2---2-2-2-1-1---4---4-4---2-2---2-2----1------------------------|
A|--4-----2-----2----------4-4--4-----2-----2----------2--4------------------|
E|-2-----0-----0-------------2-2-----0-----0---------------------------------|

                      I want to let you go.................

(Refrão)

Outro:


E|---------------------------------------------------------------------------|
B|---------------------------------------------------------------------------|
G|----2-----1-----1----------2-----2-----1-----1----------2---2-----1-----1--|
D|---4-4---2-2---2-2-2-1-1---4----4-4---2-2---2-2-2-1-1---4--4-4---2-2---2-2-|
A|--4-----2-----2----------4-4---4-----2-----2----------4-4-4-----2-----2----|
E|-2-----0-----0-------------2--2-----0-----0-------------2------0-----0-----|

                      Incomplete                            (fade out)

19.681 exibições

Comentários 0

Exibir acordes »
publicidade
fechar