Give Thanks And Praises

Bad Brains

 Bad Brains
Tom: G
		
This one is simple. It's off there new album released June/26/2007.

Give Thanks and Praises
BUILD A NATION

Intro:

e-------------------------------------------------------------------------------------|
b-------------------------------------------------------------------------------------|
g-5-4-2-4-5-4------5-4-2-4-5-4--------------------------------------------------------|
d-5-4-2-4-5-4-2----5-4-2-4-5-4-2-2----------------------------------------------------|
a-3-2-0-2-3-2-2----3-2-0-2-3-2-2-2----------------------------------------------------|
E------------- 0---------------- 0-0--------------------------------------------------|



e------------------------------------------------------------------------------------|
b------------------------------------------------------------------------------------|
g-5-4-2-4-5-------5-4-2-4-5-4-x-x-x-x------------------------------------------------|
d-5-4-2-4-5-2-----5-4-2-4-5-4-2-2-2-2------------------------------------------------|
a-3-2-0-2-3-2-----3-2-0-2-3-2-2-2-2-2------------------------------------------------|
E----------- 0----------------- 0-0-0-0----------------------------------------------|


Verse:
e-------------------------------------------------------------------------------------|
b-------------------------------------------------------------------------------------|
g-7-7-7-11-9-11-12-12-12-12-12-12-12-12-----------------------------------------------|
d-7-7-7-11-9-11-12-12-12-12-12-12-12-12-----------------------------------------------|
a-5-5-5-9  -7-9  -10-10-10-10-10-10-10-10---------------------------------------------|
E ------------------------------------------------------------------------------------|

Chorus:

e------------------------------------------------------------------------------------|
b------------------------------------------------------------------------------------|
g-5-4-5-4-x-x-x-x-x-x--5-4-5-4-11~~~~------------------------------------------------|
d-5-4-5-4-2-2-2-2-2-2--5-4-5-4-11~~~~------------------------------------------------|
a-3-2-3-2-2-2-2-2-2-2--3-2-3-2-9  ~~~~-----------------------------------------------|

E--------- 0-0-0-0-0-0---------------------------------------------------------------|


Selassie GuideLight Itinually!
879 exibições

Comentários 0

Consegui tocarAinda não conseguiram tocar essa música. Seja o primeiro!
    Não consegui tocar
    Exibir acordes »
    publicidade
    fechar