Fórmula Mágica

Banda Calypso

 Banda Calypso
Tom: A
		
Intro: (A, E, F#m, D, A, E, D)

Riff

E|--------7/9---------5/7------------------------9h10-7-------
B|--------------5--5------------7-9h10p9-7--7-5---------------
G|-9--9---------------------6-------------7-------------------     
D|------------------------------------------------------------
A|------------------------------------------------------------
E|------------------------------------------------------------



E|------7------------------------------12/1312---------------
B|---10---10p9p8-----------------10-12------------------------
G|-----------------------9-11-12------------------------------      
D|------------------12-12-------------------------------------
A|------------------------------------------------------------
E|------------------------------------------------------------


A          E    F#m             
 Te espero tanto      
D
 E você não vem
A                E    F#m             
 Já não tenho prantos
          D                    A  
 Pra derramar por você meu bem
       E            F#m          D
 A saudade faz meu mundo ficar triste
A    E          D        Dm
 Alegria sem você não existe
 
A           E
 Onde eu esteja
F#m        D
 Sempre estou pensando em você
A            E                F#m
 Não vejo beleza (Não vejo beleza)
      D
 Nem mesmo no entardecer

A      E           F#m           D
 A saudade faz meu mundo ficar triste
A     E         D        Dm
 Alegria sem você não existe

A        E        F#m
 Vou tentar encontrar
     D               A
 No fundo do meu coração
            E
 A fórmula mágica
     D
 Pra te conquistar

Intro,Riff
Repete Tudo
18.706 exibições

Comentários 0

Composição: Tonny Brasil
Esse não é o compositor? Avise-nos.
Contribuição: Samaronne
Exibir acordes »
publicidade
fechar