Isso Não É Amor

Banda Enigma

Sem foto do Banda Enigma
Tom: A
		
Intro: A E D E A D A D A


E|------------------------12/14--12-----------------
B|-10--12--12/14--14--14-------------14--12--10--12-
G|--------------------------------------------------
D|--------------------------------------------------
A|--------------------------------------------------
E|--------------------------------------------------



E|-9/10--9---------------------------------12/17----
B|----------12--10--10/12--10--9--9/10--------------
G|--------------------------------------------------
D|--------------------------------------------------
A|--------------------------------------------------
E|--------------------------------------------------



E|-10--9--------------------------------------------
B|--------10----------------------------------------
G|------------9--6--6/7~ ~ -------------------------
D|--------------------------------------------------
A|--------------------------------------------------
E|--------------------------------------------------


  A                    D
Vou te falar pela última vez
    A                    E
não brinca mais com meu amor;
 F#m                      D
Você não sabe o estrago que fez,

   Bm                      E      D E
no meu coração o mau que causou.          E|-7/9-----------------------
                                          B|------12--10---------------
                                          G|--------------11--11/13~~ -


  A                    D
Ainda lembro de cada palavra,
    A                    E
das coisas que me prometeu;


E|------------------12--12/14~~ -----
B|-----------9--12-------------------
G|----9--11--------------------------
D|-9---------------------------------
A|-----------------------------------
E|-----------------------------------


  F#m                      D
disse que iria viver só pra gente
   A          E        A
e o seu amor seria só meu.


    A  A  A  A
E|-x--x--x--x------------------------9--10--10/12~~ -
B|-x--x--x--x---------9--10--10--12------------------
G|-x--x--x--x--9--11---------------------------------
D|-x--x--x--x----------------------------------------
A|-x--x--x--x----------------------------------------
E|-x--x--x--x----------------------------------------

   ↓  ↓  ↓  ↓

  A                      E
Hoje vejo você se afastando de mim
    D                      A
me tratando assim de qualquer jeito;
  A                      E
Evitando olhar dentro do meu olhar,
    D                 A
isso não é amor, não aceito.

   A                     E
Se você já não tem mais amor pra me dar,
      D                      A
não precisa mentir, não me engana.
        A               E
Eu não vou aceitar me deitar com um alguém

       D        E                A
que pensa em outro enquanto me ama;            E|--------12--17------------
                                               B|-12/14----------15--14~~ -
                                               G|--------------------------


        A               E
Eu não vou aceitar me deitar com um alguém
      D        E                A
que pensa em outro enquanto me ama;


    D  D
E|-x--x--12/14--12---------------
B|-x--x-------------12--12/14~~ -
G|-x--x--------------------------
D|-x--x--------------------------
A|-x--x--------------------------
E|-x--x--------------------------

   ↓  ↓
12.690 exibições

Comentários 2

  • Derci Derci: Postado em 29/10/2014 11:53

    que ritmo eu posso usar nessa musica?

  • romeu romeu: Postado em 18/10/2014 17:36

    eu adorei essa música. Ela é demais. Valeu rapaziada

Exibir acordes »
publicidade
fechar