Nada Se Compara a Ti

Banda Grafith

 Banda Grafith
Tom: A#
		
Intro:

E|----15-15-15-15-15---------15-15-15-15-15-------------|
B|-15--------------15-16~-15----------------16-15-------|
G|------------------------------------------------------|
D|------------------------------------------------------|
A|------------------------------------------------------|
E|------------------------------------------------------|



E|------------------------------------------------------|
B|----15-13----15-13--------13-15-13----13h15~~---------|
G|-15-------15--------12-15----------15-----------------|
D|------------------------------------------------------|
A|------------------------------------------------------|
E|------------------------------------------------------|



E|----15-15-15-15-15---------15-15-15-15-15-------------|
B|-15--------------15-16--15----------------16-15~~-----|
G|------------------------------------------------------|
D|------------------------------------------------------|
A|------------------------------------------------------|
E|------------------------------------------------------|



E|------------------------------------------------------|
B|----15-13----15-13--------13-15-13----12~~------------|
G|-15-------15--------12-15----------15-----------------|
D|------------------------------------------------------|
A|------------------------------------------------------|
E|------------------------------------------------------|


Gm                     Eb
Quando estou em silêncio, às vezes recordo
Bb                                F
Quando encontro alguém pra desabafar

E mostrar todos pensamentos.
Gm                Eb
Até em meus sonhos, eu consigo vê-la,
Bb                                    F
Tem coisas que a gente deixar pra trás, mais um dia acaba sofrendo.

Eb5              G5
Não quero chorar, eu vou evitar.
F5                             D5
Encontrar todos meus amigos pra tirar você de vez do meu

coração.

Gm                                     Eb
Nada se compara a ti, nada é comparado a ti.
                           Bb                   F
São flores para o nosso amor, quero só te respirar.
Gm                                     Eb
Nada se compara a ti, nada é comparado a ti.
                          Bb                    F
São flores para o nosso amor, quero só te respirar.


E|----15-15-15-15-15---------15-15-15-15-15-------------|
B|-15--------------15-16--15----------------16-15~~-----|
G|------------------------------------------------------|
D|------------------------------------------------------|
A|------------------------------------------------------|
E|------------------------------------------------------|



E|------------------------------------------------------|
B|----15-13----15-13--------13-15-13----12~~------------|
G|-15-------15--------12-15----------15-----------------|
D|------------------------------------------------------|
A|------------------------------------------------------|
E|------------------------------------------------------|


Gm                       Eb         Bb
É Inevitável, não é por acaso, quando acordo
                      F
Eu sinto seus beijos e o calor de cada momento
Gm                Eb
Eu fico sozinho prefiro dar um tempo.
Bb                     F
Se você passa tudo fica, e volta logo o amor ausente

Eb5              G5
Não quero chorar, pra depois se gabar.
F5                                           D5
Vou parar de contar sentimentos, meus amigos não querem que eu

sofra mais.

Gm                                     Eb
Nada se compara a ti, nada é comparado a ti.
                           Bb                   F
São flores para o nosso amor, quero só te respirar.
Gm                                     Eb
Nada se compara a ti, nada é comparado a ti.
                          Bb                    F
São flores para o nosso amor, quero só te respirar.

Gm                                     Eb
Nada se compara a ti, nada é comparado a ti.
                           Bb                   F
São flores para o nosso amor, quero só te respirar.
Gm                                     Eb
Nada se compara a ti, nada é comparado a ti.
                          Bb                    F
São flores para o nosso amor, quero só te respirar.

Solo Final:

E|------------------------------------------------------|
B|--15--19-19-19-19-19---15-17~~--15--19-19-19-19-19----|
G|------------------------------------------------------|
D|------------------------------------------------------|
A|------------------------------------------------------|
E|------------------------------------------------------|



E|------------------------------------------------------|
B|--15h17-15~~------------------------------------------|
G|--------------15-17-15-17b19r17--15-17b19r17-17~~-----|
D|------------------------------------------------------|
A|------------------------------------------------------|
E|------------------------------------------------------|



E|------------------------------------------------------|
B|------------------------------------------------------|
G|--15-17-15-17b19r17--15--17b19---15-14-12-14-15-------|
D|------------------------------------------------------|
A|------------------------------------------------------|
E|------------------------------------------------------|



E|------------------------------------------------------|
B|------------------------------------------------------|
G|----------------15-------------15------------15-17----|
D|---------15--17-----17--15--17----17--15--17----------|
A|-15--17-----------------------------------------------|
E|------------------------------------------------------|



E|-----------------------------15----16----17----18-----|
B|--15-16-15-16-15-16-15~~--15----15----15----15--------|
G|------------------------------------------------------|
D|------------------------------------------------------|
A|------------------------------------------------------|
E|------------------------------------------------------|



E|-17b19r17--15-17~-------------------------------------|
B|------------------19/21--19-17------17-18-19----------|
G|--------------------------------18--------------------|
D|------------------------------------------------------|
A|------------------------------------------------------|
E|------------------------------------------------------|
7.039 exibições

Comentários 0

Composição: Sabe quem é o compositor? Envie pra gente. Contribuição: Herik Correções: _ronny »
Exibir acordes »
publicidade
fechar