Vida Loka Também Ama

Banda Grafith

 Banda Grafith
Tom: A#
		

 Intro: Cm  Bb (2x) Cm
E|---------------------------------------------------------------------------------|
B|----------15-16-15-16-15----15-16-15-16-15----13-15-13-15-13---------------------|
G|--/15-17-----------------17----------------15----------------15--17--17b19--15-17|
D|---------------------------------------------------------------------------------|
A|---------------------------------------------------------------------------------|
E|---------------------------------------------------------------------------------|



E|---------------------------------------------------------------------------------|
B|--15-16-15-16-15----15-16-15-16-15----13-15-13-15-13-----------------------------|
G|-----------------17----------------15----------------15--17--17b19--15-17~-~-----|
D|---------------------------------------------------------------------------------|
A|---------------------------------------------------------------------------------|
E|---------------------------------------------------------------------------------|


Cm
O Sá palavra é certo e você tá ligado
                                 Bb
Pode acreditar com nós e sem exclama

Estamos todos juntos sempre lado à lado
             G                     Cm
Nós e "vida loka" mas nós também ama

Que DEUS ilumine todo mundo agora
                              Bb
Quebra o cadeado e  faz o povo rir

Canto uma palavra e mando o mal embora
G                               Cm     Cm G
Liberdade já que eu vou cantando assim.

Cm
Amar é poder compartilhar os sentimentos
                                      Bb
É saber fazer feliz quem está do seu lado

Dando a volta por cima dos maus momentos
      G                        Cm
Saber perdoar sem lembrar do passado.
Cm
É poder compartilhar os sentimentos
                                      Bb
É saber fazer feliz quem está do seu lado

Dando a volta por cima dos maus momentos
      G                        Cm   Cm G
Saber perdoar sem lembrar do passado.

(Repete Solo Inicial)

Cm                                                                  Bb
Fiz essa bela letra em um dia triste, quem é "vida loka" se identificou
                                                    G               Cm
Viu que mesmo quando a vida ta difícil, mais ainda sabemos fala de amor
                                                                    Bb
Sei que nada dura pela vida inteira, a não ser aquele olhar de esperança
                                         G                      Cm
Não me apego a nada não marco bobeira, acredito só no riso das crianças.

Cm
Amar é poder compartilhar os sentimentos
                                      Bb
É saber fazer feliz quem está do seu lado

Dando a volta por cima dos maus momentos
      G                        Cm
Saber perdoar sem lembrar do passado.
Cm
É poder compartilhar os sentimentos
                                      Bb
É saber fazer feliz quem está do seu lado

Dando a volta por cima dos maus momentos
      G                        Cm   Cm  G  Cm  Bb
Saber perdoar sem lembrar do passado.

(Para encerrar, repete o Solo Inicial)
9.156 exibições

Comentários 1

  • netinho_brazil netinho_brazil: Postado em 03/12/2011 10:25

    A tablatura tá equivocada, onde tem 14 subistitua por 13 (y)

Composição: Sabe quem é o compositor? Envie pra gente. Contribuição: coruro Correções: hitalow e mais 1 »
Exibir acordes »
publicidade
fechar