Barão Vermelho

Por Que a Gente é Assim

200.541 exibições
Tom: D
A sequencia fica em 

Riff


   A5           C5 D5 
E|---------------------
B|---------------------
G|---------------------
D|--2--2-2--2-2--5--7--
A|--0--0-0--0-0--3--5--
E|---------------------


Parte 1 
(A , C9 , D)
mais uma dose , é claro que eu estou afim
a noite nunca tem fim 
A
Porque , agente é assim ...

Parte 2
(A , C9 , D)
Agora fica comigo , e não , não desgruda de mim
ve se ao menos me engole BABY ...
A                       C, D, 
não me mastigue assim

D        G
canibais de nós mesmos
D           Bm                  F#m
antes que a terra nos coma 
G              D
sem grama sem dramas ,
A
Porque  agente é assim?????
(A   ,  C   , D )
Eu continuo queimando até a ultima ponta!

Repete Parte 1

solo 
(A7+ ,G , A7+ , F#m , A , G , F#m , A7+ )


E|---------------------------------------------------------------------------
B|------------10b-----------------------10/14--12b--10b----------------------
G|--9--11--9-------11--9b------9--11--9-----------------11b--9b--/--9--11--9-
D|---------------------------------------------------------------------------
A|---------------------------------------------------------------------------
E|---------------------------------------------------------------------------


E|---------------------------------------|-----------------------------------
B|---------------------------------------|----------------------------------- 
G|---9--11--9----------------------------|-----------------------------------
D|-------------11-11/12-11-9-9/11--------|-----------------------------------
A|--------------------------------12~~---|-----------------------------------
E|---------------------------------------|---5--4--3--2----------------------

                                                     (F#m Voce tem exatamente...)

F#m            C#m      Bm                                 
Voce tem exatamente , tres mil horas pra parar de          
D7+   (riff2)                                               
me beijar
A7+                  C#m       B
meu bem , vc tem tudo pra me conquistar ...
A7+             C#m             B 
voce tem apenas um segundo , 1 segundo pra aprender 
D7+    (riff2)
a me amar ...
A7+           C#m          D             
vc tem a vida inteira baby , a vida inteira ...
(A , C9 , D)
pra me devorarrr

repete Parte 1


riff2

E|--0-0/2-0--------
B|----------2------
D|------------2----
A|-----------------
E|-----------------

Comentários 2

  • Lissandro Lissandro: Postado em 04/08/2014 22:53

    Sou fã do cifra club, mas vou deixar aqui um protesto!!! Por que tão poucas aulas de Barão Vermelho??? Uma das melhores bandas nacionais !!!

  • igor igor: Postado em 27/08/2013 11:22

    q riff foda cara

conseguiu tocar?

  • Thiago
  • Mariana
  • Gabriel
  • daniellinhares7
  • Lucas
  • Azazel
  • d3grade
Nicola7.867 visualizações
    ver covers de outras músicas »
    0:00 / 0:00

    Capítulos

      1 versão de baixoexibiçõescontribuição e correção
      1 versão de Guitar Proformatodownloadscontribuição
      play/pausefechar subir/descer velocidade
      6ª corda E5ª corda A4ª corda D3ª corda G2ª corda B1ª corda E
        acordes
        publicidad
        fechar
        ok