Tom: A
		
(intro 2x) A   E   G    D   E  

(enquanto faz a base)

E|------------------------------------------------------
A|-----------7----------7--7-9-------5----------3/7-----
D|---7--6-------7--6-----------5--4----4-2--------------
G|------------------------------------------------------
B|------------------------------------------------------
E|------------------------------------------------------



E|-----------------------------------------------------------------------
A|----7--9-------------7---------2/7--7-9--------5-------7-5--------3/7--
D|-----------6--7--6------2/7--6-----------5--4----5-4-------4--2--------
G|-----------------------------------------------------------------------
B|-----------------------------------------------------------------------
E|-----------------------------------------------------------------------


    A      E/G#
PRA QUE SE ABATER
            G                 D/F#       E/G#
QUANDO A ANGÚSTIA ASSOLA O TEU CORAÇÃO?
    A        E/G#
BASTA COMPREENDER:
        G                   D/F#       E/G#
JESUS MORREU PARA TE DAR A SALVAÇÃO
   A        E/G#
A ALMA QUER SABER
       G                    D/F#        E/G#
ONDE ESTÁ A SOLUÇÃO PRO TEU SOFRER
    A              E/G#
CAMINHA PRA ENCONTRAR
             Bm7
NA CRUZ LEVOU MINHA DOR
            C#m7
ELE É O FILHO DO AMOR
        D                 E       F#m7
VEIO COMO REDENTOR PRA ME GUIAR
           Bm7
VIVO PRA TE ADORAR
        C#m7
PRA CONTIGO MORAR
        D
MEU LOUVOR ENTREGAR
         E           A
COMO INCENSO A RESPIRAR

(refrão)
E4     A          C#m7   D        E
EXALTAREI AO QUE VIVE EM MIM
              A            C#m7     D
COM BRASAS NO ALTAR JUNTO COM SERAFINS
 E                 F#m7
PROSTRADO AOS TEUS PÉS
     C#m7      D
TUA GLÓRIA SENTIR
       Bm7            E4
ME DERRAMAR DIANTE DE TI
               A       C#m7     D       E
NO MAIS ALTO MONTE NÃO ME SINTO SÓ
             A             C#m7      D
QUANDO A TEMPESTADE VEM TU ÉS MEU FAROL
         F#m7       C#m7    D
MESMO EM CADEIAS VOU TE ADORAR
            Bm7
NA CRUZ LEVOU MINHA DOR
            C#m7
ELE É O FILHO DO AMOR
            D             E        F#m7
VEIO COMO REDENTOR PRA ME GUIAR
              Bm7
VIVO PRA TE ADORAR
                  C#m7
PRA CONTIGO MORAR
                   D
MEU LOUVOR ENTREGAR
     E4              A
COMO INCENSO A RESPIRAR

(interludio) (solo guitarra 2°parte da intro)  A    E    G    D    E

(repete tudo)

E4     A          C#m7   D        E
EXALTAREI AO QUE VIVE EM MIM
              A            C#m7     D
COM BRASAS NO ALTAR JUNTO COM SERAFINS
 E                 F#m7
PROSTRADO AOS TEUS PÉS
     C#m7      D
TUA GLÓRIA SENTIR
       Bm7            E4
ME DERRAMAR DIANTE DE TI
                    A   E  C#m7  D       E
NO MAIS ALTO MONTE NÃO ME SINTO SÓ
             A             C#m7      D
QUANDO A TEMPESTADE VEM TU ÉS MEU FAROL
         F#m7       C#m7    D
MESMO EM CADEIAS VOU TE ADORAR
            Bm7
NA CRUZ LEVOU MINHA DOR
            C#m7
ELE É O FILHO DO AMOR
            D             E        F#m7
VEIO COMO REDENTOR PRA ME GUIAR
              Bm7
VIVO PRA TE ADORAR
                  C#m7
PRA CONTIGO MORAR
                   D
MEU LOUVOR ENTREGAR
     E4              A
COMO INCENSO A RESPIRAR


NA CRUZ LEVOU MINHA DOR
           C#m7
ELE É O FILHO DO AMOR
     D                  E        F#m7
VEIO COMO REDENTOR PRA ME GUIAR
              Bm7
VIVO PRA TE ADORAR
               C#m7
PRA CONTIGO MORAR
                   D
MEU LOUVOR ENTREGAR
    E4               A
COMO INCENSO A RESPIRAR

( A G D/F# E  A )
6.342 exibições

Comentários 0

Composição: Sabe quem é o compositor? Envie pra gente. Contribuição: _LoKo_PoR_RoCk_ Correções: moacir »
Consegui tocarAinda não conseguiram tocar essa música. Seja o primeiro!
    Não consegui tocar
    Exibir acordes »
    publicidade
    fechar