Por Elise

Bethoven

Sem foto do Bethoven
Tom: F
		

e|------------------------------------------------------------------------------------------
B|------------------------------------------------------------------------------------------
G|------------------------------------------------------------------------------------------
D|------------------------------------------------2----------------2------------------------
A|--------------------------------------3-------------3----------------3--------------------
E|--5---4---5---4---5---0---3---1----------------------0---1-----------1---3----------------



e|------------------------------------------------------------------------------------------
B|------------------------------------------------------------------------------------------
G|------------------------------------------------------------------------------------------
D|--2----------------------------------------------2----------------2----------------------- 
A|------------------------------------------3----------3----------------3-----------3-------
E|------5---4---5---4---5---0---3---1-------------------0---1-----------3---1---------------



e|------------------------------------------------------------------------------------------
B|------------------------------------------------------------------------------------------
G|------------------------------------------------------------------------------------------
D|------------------------------------------------------------------------------------------
A|--3-------------------3-------------------3-----------6------3-------6---5----------------
E|------1---3---5----------6---5---3----------5---3--------------3--------------------------

Comentários 0

Exibir acordes »
publicidade
fechar