Bethoven

Por Elise

15.363 exibições
Tom: C

E|-5--4--5--4--5--0--3--1-----------0--1--------1--3----
B|--------------------------3-----3-----------3---------
G|-----------------------------2-----------2----------2-
D|------------------------------------------------------
A|------------------------------------------------------
E|------------------------------------------------------


E|-5--4--5--4--5--0--3--1----------0--1------3--1---
B|-------------------------3-----3---------3------3-
G|----------------------------2----------2----------
D|--------------------------------------------------
A|--------------------------------------------------
E|--------------------------------------------------


E|----1--3--5---6--5--3----5---3-------3------
B|-3----------3----------3--------6--3---6--5-
G|--------------------------------------------
D|--------------------------------------------
A|--------------------------------------------
E|--------------------------------------------

Comentários 0

140 .
140 cancelar

conseguiu tocar?

  • emerson.sanchespereira.1
  • brunoroxs

covers

Grave um vídeo tocando Por Elise e mande pra gente!

Ex.: http://www.youtube.com/watch?v=0IvSvIwGdwk
ver covers de outras músicas »
0:00 / 0:00

Capítulos

    1 versão de violão dificuldade exibições contribuição e correção
    1 versão de guitarra dificuldade exibições contribuição e correção
    1 versão de cavaco dificuldade exibições contribuição e correção
    1 versão de teclado dificuldade exibições contribuição e correção
    2 versões de Guitar Proformatodownloadscontribuição
    1 versão de partiturasformatodownloadscontribuição
    play/pausefechar subir/descer velocidade
    6ª corda E5ª corda A4ª corda D3ª corda G2ª corda B1ª corda E
      acordes
      publicidad
      fechar
      ok