Rock Around The Clock

Bill Haley

 Bill Haley
Tom: A
		
(riff) Este Riff se repete na música toda...


E|-------------------------|-------------------------|-------------------------|
B|-0--4-----------------4--|-0--4-----------------4--|-5-----------------------|
G|-------2--4--5--4--2-----|-------2--4--5--4--2-----|---4-------------2-------|
D|-------------------------|-------------------------|------2-4-5-4-2----------|
A|-------------------------|-------------------------|-------------------------|
E|-------------------------|-------------------------|-------------------------|



E|-------------------------|-4-----------------------|
B|-0--4-----------------4--|---2-4-------------------|
G|-------2--4--5--4--2-----|-------0-4---------------|
D|-------------------------|-----------2--4-5--------|
A|-------------------------|-------------------------|
E|-------------------------|-------------------------|


A A#
  One, Two, Three O'clock, Four O'clock rock,
A A#
  Five, Six, Seven O'clock, Eight O'clock rock.
A A#
  Nine, Ten, Eleven O'clock, Twelve O'clock rock,
            E   E           E
We're gonna rock around the clock tonight.
                A
Put your glad rags on and join me hon',
                             A7
We'll have some fun when the clock strikes one.

(refrão)
                  D
We're gonna rock around the clock tonight,
                        A
We're gonna rock, rock, rock, 'till broad daylight,
                        E         D                A        E
We're gonna rock we're gonna rock around the clock tonight.

                    A
When the clock strikes two, three and four,
                              A7
If the band slows down we'll yell for more.

(refrão)

(solo)


E|---------------------------------------------------|
B|---------------------------------------------------|
G|---------------------------------------------------|
D|---------------------------------------------------|
A|---------------------------------------------------|
E|-0-1-2-1-0-1-2-1-0-1-2-1-2-1-2---------------------|



E|---------------------------------------------------|
B|---------------------------------------------------|
G|---------------------------------------------------|
D|--------------------------------5-6----------------|
A|------------------------------------5-7------------|
E|-8-8-5-8-8-5-8-8-5-8-8-5-5-0-0----------5----------|



E|---------------------------------------------------|
B|---------------------------------------------------|
G|---------------------------------------------------|
D|---------------------2-2-2-2-----------------------|
A|---------------------------------------------------|
E|-7-6-5-4-3-2-1-0-----------------------------------|


                    A
When the chimes ring five, six, and seven,
                    A7
We'll be right in seventh heaven.

(refrão)

                  A
When it's eight, nine, ten, eleven too,
                A7
I'll be goin' strong and so will you.

(refrão)

                   A
When the clock strikes twelve we'll cool off then,
                              A7
Start rockin' 'round the clock again.

(refrão)
44.781 exibições

Comentários 1

Composição: Jimmy DeKnight / Keith Warren / Peter Gill
Esse não é o compositor? Avise-nos.
Contribuição: Mr_Junior Correções: gbrielferreira e mais 2 »
Exibir acordes »
publicidade
fechar