Impossível

Biquini Cavadão

 Biquini Cavadão
intro
G -------------------------------------
D -------------------------------------
A --0(16x)--2(16z)--0(16x)--2(8x)------
E ---------------------------------0(8x)
>
Tudo bem quando termina bem
**A**
G --------------------------------------
D --------------------------------------
A --0--0----2--2----0--0----2--2--------
E ----------------------------------0--0
>
        Mas eu sei que no coração
**B**
G -----------------------------------------------------------------
D -----------------------------------------------------------------
A --0--0----2--2------------2--2--0-2--5--5----7--7----------------
E ------------------2--2-------------------------------2--2----0--0
>
Tudo que viceja ....
G --------------------------------------
D --------------------------------------
A --0--0----2--2----0--0----2--2--------
E ----------------------------------0--0

E não podemos evitar que a vida..
**B** 

É impossível, é impossível esquecer você
refrão
G ---------------------------
D ---------------------------
A --0(8x)--------------------
E --------4(8x)--2(8x)--4(8x)
>
É impossível esquecer o que senti.
G ---------------------------
D ---------------------------
A --0(8x)--------------------
E --------4(8x)--2(8x)--3(8x)

Tudo que morre ...
**A**
Mas ante que eu me esqueça,
**B**

É impossível
refrão

»»especial««
G -------------------------------
D -------------------------------
A --0(16x)--2(16x)--4(16x)-------
E -------------------------3(16x)
>
Tudo que morre ...
»»especial««

Mas ante que eu me esqueça,
**B**

refrão



_______________________________________________________
Contribuição: Bruner(brunerf@bol.com.br)
5.907 exibições

Comentários 0

Consegui tocarAinda não conseguiram tocar essa música. Seja o primeiro!
    Não consegui tocar
    publicidade
    fechar