Águas Que Saram

Bispo Rodovalho

 Bispo Rodovalho
Tom: C
		

Intro 2x: C9  G  Am  F7+
E|-----------------------------------------------
B|-----------------------------------------------
G|---7h9----7/9--7-5-5h7---7/10-9-7/9-7-5--------
D|----------------------------------------5-5h7--
A|-----------------------------------------------
E|-----------------------------------------------



E|--------------------------------------------------
B|--------------------------------------------------
G|---7h9----7/9--7-5-5h7---7/9\7---7/10-9-7/9-7-5---
D|------------------------------------------------5-5h7
A|--------------------------------------------------
E|--------------------------------------------------



           C9	     Am
Aguas Que Saram,  Derrama
    	F7+               C9
Traz Esperança Por Onde Passar
 	   F7+
Aguas Que Sustentam
 	      Am
Minha Fé Minha Vida
 	C9	     G
Nestas Aguas Que Me Lavar

    	 C9
Em Tuas Águas, Vou Mergulhar
   	F
Rio De Vida, Vem Me Encontrar
  	 Am
As Tuas Águas, O Teu Espírito
   	 G
Quero Adorar

          C	         G
Quero Adorar, Teu Espirito Santo
       Am                  F
Mergulhar Em Tuas Águas Senhor
        C	             G
Maravilhoso E Bendito És
         Am              F
Minha Oferta Será Teu Louvor
6.558 exibições

Comentários 0

Composição: Bispo Rodovalho
Esse não é o compositor? Avise-nos.
Contribuição: bt_furkys Correções: aleexmusic e mais 2 »
Exibir acordes »
publicidade
fechar