Methademic

Black Sabbath

 Black Sabbath Compositor: Black Sabbath
Tom: C
Afinação: Eb Ab Db Gb Bb Eb
		

E|----------------------------0-------------------------------------------|
B|----------0---------------0---------------0-1--0-1-0---------------0----|
G|--------0---------------0---------------2------------------------0------|
D|------2---------------2---------------2------------------------2--------|
A|----2-----------2--1------------1~~-0------------------------2----------|
E|-0--------------------------------------------------------0-------------|

                                                 

E|----------------------------0-------------------------------------------|
B|----------0---------------0---------------0-1--0-1-0---------------0----|
G|--------0---------------0---------------2------------------------0------|
D|------2---------------2---------------2------------------------2--------|
A|----2-----------2--1------------1~~-0------------------------2----------|
E|-0--------------------------------------------------------0-------------|



E|-----------0------------------0-2--------0------|
B|---------0----0-------------3-----3------0------|
G|-------0---------0--------2---------2----0------|
D|-----2--------------2--0--------------0--2------|
A|-/3--------------------------------------2------|
E|-----------------------------------------0------|


0:34


E|--------------------------------------------------------------|
B|--------------------------------------------------------------|
G|--------------------------------------------------------------|
D|-----------------------------------------------------------5--|
A|-----------------------------------------------------3--4--3--|
E|-0--0-2-0-1-0-3--0--0-2-0-1-0-3--0---0-2-0-1-0-3--0--1--2-----|



E|--------------------------------------------------------------|
B|--------------------------------------------------------------|
G|--------------------------------------------------------------|
D|--------------------------------------------------------------|
A|-----------------------------------------------------5--4--3--|
E|-0--0-2-0-1-0-3--0--0-2-0-1-0-3--0---0-2-0-1-0-3--0--3--2--1--|



E|--------------------------------------------------------------|
B|--------------------------------------------------------------|
G|--------------------------------------------------------------|
D|-----------------------------------------------------------5--|
A|-----------------------------------------------------3--4--3--|
E|-0--0-2-0-1-0-3--0--0-2-0-1-0-3--0---0-2-0-1-0-3--0--1--2-----|



E|----------------------------------------------------------------|
B|----------------------------------------------------------------|
G|----------------------------------------------------------------|
D|-----------------------------------------------------4--5--7--9-|
A|-----------------------------------------------------2--3--5--7-|
E|-0--0-2-0-1-0-3--0--0-2-0-1-0-3--0---0-2-0-1-0-3--0-------------|


1:04


E|------------0--------------0--------------0---------------0------|
B|----------0--------------0--------------0---------------0--------|
G|--------0--------------0--------------0--------------0-----------|
D|------2--------------5--------------2--------------8-------------|
A|----2--------------5--------------2--------------7---------------|
E|-0--------------0--------------0--------------0------------------|



E|------------0--------------0--------------0----------------0-----|
B|----------0--------------0--------------0----------------0-------|
G|--------0--------------0--------------0---------------0----------|
D|------2--------------5--------------2---------------8------------|
A|----2--------------5--------------2--------------7---------------|
E|-0--------------0--------------0--------------0------------------|


1:28


E|---------------------------------------------------------------------|
B|---------------------------------------------------------------------|
G|---------------------------------------------------------------------|
D|---------------3--------------------------------3--------------------|
A|-----5-4---4-5-1------5-4---4-5-4-----5-4---4-5-1------5-4---4-5-4---|
E|-0---3-2-0-2-3----0---3-2-0-2-3-2-0---3-2-0-2-3----0---3-2-0-2-3-2---|



E|---------------------------------------------------------------------|
B|---------------------------------------------------------------------|
G|---------------------------------------------------------------------|
D|---------------3--------------------------------3--------------------|
A|-----5-4---4-5-1------5-4---4-5-4-----5-4---4-5-1------5-4---4-5-4---|
E|-0---3-2-0-2-3----0---3-2-0-2-3-2-0---3-2-0-2-3----0---3-2-0-2-3-2---|


1:40


E|------------0--------------0--------------0---------------0------|
B|----------0--------------0--------------0---------------0--------|
G|--------0--------------0--------------0--------------0-----------|
D|------2--------------5--------------2--------------8-------------|
A|----2--------------5--------------2--------------7---------------|
E|-0--------------0--------------0--------------0------------------|




E|------------0--------------0--------------0----------------0-----|
B|----------0--------------0--------------0----------------0-------|
G|--------0--------------0--------------0---------------0----------|
D|------2--------------5--------------2---------------8------------|
A|----2--------------5--------------2--------------7---------------|
E|-0--------------0--------------0--------------0------------------|


2:05


E|---------------------------------------------------------------------|
B|---------------------------------------------------------------------|
G|---------------------------------------------------------------------|
D|---------------3--------------------------------3--------------------|
A|-----5-4---4-5-1------5-4---4-5-4-----5-4---4-5-1------5-4---4-5-4---|
E|-0---3-2-0-2-3----0---3-2-0-2-3-2-0---3-2-0-2-3----0---3-2-0-2-3-2---|


2:12


E|------------------------------------------|
B|---------6--------------------------------|
G|---------5--------------------------------|
D|-2-------------7--------------------------|
A|-0-------------5----------5-------5-------|
E|------------------------X-3~----X-3~---X--|



E|------------------------------------------|
B|---------6--------------------------------|
G|---------5--------------------------------|
D|-2-------------7----------5-------5-------|
A|-0-------------5----------3~------3~------|
E|------------------------X-------X------X--|



E|------------------------------------------|
B|---------6--------------------------------|
G|---------5--------------------------------|
D|-2-------------7--------------------------|
A|-0-------------5----------5-------5-------|
E|------------------------X-3~----X-3~---X--|



E|------------------------------------------|
B|---------6-----8--------------------------|
G|---------5-----7--------------------------|
D|-2------------------------5-------5-------|
A|-0------------------------3~------3~------|
E|------------------------X-------X------X--|


2:35


E|-----------------------------------------------------------------|
B|-----------------------------------------------------------------|
G|-----------------------------------------------------------------|
D|-----------------------------------------------------------------|
A|-----------------------------------------------------------------|
E|-0--0-2-0-1-0-3--0--0-2-0-1-0-3--0--0-2-0-1-0-3--0--0-2-0-1-0-3--|



E|-----------------------------------------------------------------|
B|-----------------------------------------------------------------|
G|-----------------------------------------------------------------|
D|-----------------------------------------------------------------|
A|-----------------------------------------------------------------|
E|-0--0-2-0-1-0-3--0--0-2-0-1-0-3--0--0-2-0-1-0-3--0--0-2-0-1-0-3--|


2:47


E|---------------------------------------------------------------------|
B|---------------------------------------------------------------------|
G|-4--------3----------------------------------------------------------|
D|-2--------2---------2----------2-------------------------------------|
A|-0--------0---------0----------0-------------------------------------|
E|-0------0-0-----------------------3~--0--0-2-0-1-0-3--0--0-2-0-1-0-3-|



E|---------------------------------------------------------------------|
B|---------------------------------------------------------------------|
G|-4--------3----------------------------------------------------------|
D|-2--------2---------2----------2-------------------------------------|
A|-0--------0---------0----------0-------------------------------------|
E|-0------0-0-----------------------3~--0--0-2-0-1-0-3--0--0-2-0-1-0-3-|



E|----------------------------------|
B|----------------------------------|
G|----------------------------------|
D|----------------------------------|
A|----------------------------------|
E|-0--0-2-0-1-0-3--0--0-2-0-1-0-3---|


3:15


E|------------------------------------------|
B|---------6--------------------------------|
G|---------5--------------------------------|
D|-2-------------7--------------------------|
A|-0-------------5----------5-------5-------|
E|------------------------X-3~----X-3~---X--|



E|------------------------------------------|
B|---------6--------------------------------|
G|---------5--------------------------------|
D|-2-------------7----------5-------5-------|
A|-0-------------5----------3~------3~------|
E|------------------------X-------X------X--|



E|------------------------------------------|
B|---------6--------------------------------|
G|---------5--------------------------------|
D|-2-------------7--------------------------|
A|-0-------------5----------5-------5-------|
E|------------------------X-3~----X-3~---X--|



E|------------------------------------------|
B|---------6-----8--------------------------|
G|---------5-----7--------------------------|
D|-2------------------------5-------5-------|
A|-0------------------------3~------3~------|
E|------------------------X-------X------X--|


3:38


E|---------------------------------------------------------------|
B|---------------------------------------------------------------|
G|---------------------------------------------------------------|
D|---------------------------------------------------------------|
A|-----7-6-5-----------7-6-5-----------7-6-5-------5-----7-------|
E|-0---------7-6-5-0---------7-6-5-0---------7-6-5-3---0-5---0---|



E|----------------------------------------------------------------|
B|-----------------------------------------------------------_----|
G|----------------------------------------------------------/ ---|
D|---------------------------------------------------------7-8-7--|
A|-----7-6-5-----------7-6-5-----------7-6-5-------5-------5/65--|
E|-0---------7-6-5-0---------7-6-5-0---------7-6-5-3---0----------|


3:50

Solo:


E|----15--15-----15--13----13--15-17-13~~~----------13-----------|
B|-15-------------------15-----------------15-13-15----15~~~----|
G|---------------------------------------------------------------|
D|---------------------------------------------------------------|
A|---------------------------------------------------------------|
E|---------------------------------------------------------------|


3:57


E|---_-------------------------------------------------|
B|--|(-------------------------------------------------|
G|-17--14-17-14----14----12--12--------12---)----------|
D|--------------15----15---------15-12----15--12-12~~--|
A|-----------------------------------------------------|
E|-----------------------------------------------------|



E|-----------------------------------------|
B|-----------------------------------------|
G|-------PH-PH-----------------------------|
D|-10----12-12-10----10-10-----------------|
A|----12----------12-------10~-8-10-8-5~~--|
E|-----------------------------------------|


4:02


E|------------------------)--)-------(-----)------------------|
B|-------------------6---8--8----------6--6-------------------|
G|-------------5-7-7---7--------------------------7~~~--------|
D|-----5---5-7------------------------------------------------|
A|-8-5---8----------------------------------------------------|
E|------------------------------------------------------------|


                                       2 STEP

E|-----------------------------------------___-----~~~~~~~~---|
B|-----13--13--13~~--------15--15--15~~----)--(---)-----------|
G|-/14---------------/14-----------------15-----15------------|
D|------------------------------------------------------------|
A|------------------------------------------------------------|
E|------------------------------------------------------------|


4:19


E|---------------------------------------------------------------------|
B|---------------------------------------------------------------------|
G|---------------------------------------------------------------------|
D|---------------3--------------------------------3--------------------|
A|-----5-4---4-5-1------5-4---4-5-4-----5-4---4-5-1------5-4---4-5-4---|
E|-0---3-2-0-2-3----0---3-2-0-2-3-2-0---3-2-0-2-3----0---3-2-0-2-3-2---|



E|---------------------------------------------------------------------|
B|---------------------------------------------------------------------|
G|---------------------------------------------------------------------|
D|---------------3--------------------------------3--------------------|
A|-----5-4---4-5-1------5-4---4-5-4-----5-4---4-5-1------5-4---4-5-4---|
E|-0---3-2-0-2-3----0---3-2-0-2-3-2-0---3-2-0-2-3----0---3-2-0-2-3-2---|



E|---------------------------------------------------------------------|
B|---------------------------------------------------------------------|
G|---------------------------------------------------------------------|
D|---------------3--------------------------------3--------------------|
A|-----5-4---4-5-1------5-4---4-5-4-----5-4---4-5-1------5-4---4-5-4---|
E|-0---3-2-0-2-3----0---3-2-0-2-3-2-0---3-2-0-2-3----0---3-2-0-2-3-2---|



E|---------------------------------------------------------------------|
B|---------------------------------------------------------------------|
G|---------------------------------------------------------------------|
D|---------------3--------------------------------3--------------------|
A|-----5-4---4-5-1------5-4---4-5-4-----5-4---4-5-1------5-4---4-5-4---|
E|-0---3-2-0-2-3----0---3-2-0-2-3-2-0---3-2-0-2-3----0---3-2-0-2-3-2---|



E|---------------------------------------------------------------------|
B|---------------------------------------------------------------------|
G|---------------------------------------------------------------------|
D|---------------3--------------------------------3--------------------|
A|-----5-4---4-5-1------5-4---4-5-4-----5-4---4-5-1------5-4---4-5-4---|
E|-0---3-2-0-2-3----0---3-2-0-2-3-2-0---3-2-0-2-3----0---3-2-0-2-3-2---|


4:49


E|----------------------------------------------------------|
B|----------------------------------------------------------|
G|----------------------------------------------------------|
D|----------------------------------------------------------|
A|----/7--3--2~-3--2--3-2--------/7--3--2--3--2-1---1-------|
E|-0----------------------3-2-0-------------------3---3-2---|


GT1


E|----------------------------------------------------------|
B|----------------------------------------------------------|
G|----------------------------------------------------------|
D|----------------------------------------------------------|
A|----/7--3--2~-3--2--3-2--------/7--3--2--3--2-1---1-------|
E|-0----------------------3-2-0-------------------3---3-2---|


GT2


E|------------------------------------------------------------------|
B|------------------------------------------------------------------|
G|------------------------------------------------------------------|
D|--/14--10--9~--10--9--10-9--------/14--10--9--10--9-8----8--------|
A|---------------------------10-9-7---------------------10---10-9-7-|
E|-0----------------------------------------------------------------|



E|---------------------------------------------------------------------|
B|---------------------------------------------------------------------|
G|---------------------------------------------------------------------|
D|---------------3--------------------------------3--------------------|
A|-----5-4---4-5-1------5-4---4-5-4-----5-4---4-5-1------5-4---4-5-4---|
E|-0---3-2-0-2-3----0---3-2-0-2-3-2-0---3-2-0-2-3----0---3-2-0-2-3-2---|



E|---------------------------------------------------------------------|
B|---------------------------------------------------------------------|
G|---------------------------------------------------------------------|
D|---------------3--------------------------------3--------------------|
A|-----5-4---4-5-1------5-4---4-5-4-----5-4---4-5-1------5-4---4-5-4---|
E|-0---3-2-0-2-3----0---3-2-0-2-3-2-0---3-2-0-2-3----0---3-2-0-2-3-2---|



E|---------------------------------------------------------------------|
B|---------------------------------------------------------------------|
G|---------------------------------------------------------------------|
D|---------------3--------------------------------3--------------------|
A|-----5-4---4-5-1------5-4---4-5-4-----5-4---4-5-1------5-4---4-5-4---|
E|-0---3-2-0-2-3----0---3-2-0-2-3-2-0---3-2-0-2-3----0---3-2-0-2-3-2---|



E|---------------------------------------------------------------------|
B|---------------------------------------------------------------------|
G|---------------------------------------------------------------------|
D|---------------3--------------------------------3--------------------|
A|-----5-4---4-5-1------5-4---4-5-4-----5-4---4-5-1------5-4---4-5-4---|
E|-0---3-2-0-2-3----0---3-2-0-2-3-2-0---3-2-0-2-3----0---3-2-0-2-3-2---|



E|---------------------------------------------------------------------|
B|---------------------------------------------------------------------|
G|---------------------------------------------------------------------|
D|---------------3--------------------------------3--------------------|
A|-----5-4---4-5-1------5-4---4-5-4-----5-4---4-5-1------5-4---4-5-4---|
E|-0---3-2-0-2-3----0---3-2-0-2-3-2-0---3-2-0-2-3----0---3-2-0-2-3-2---|



E|---------------------------------------------------------------------|
B|---------------------------------------------------------------------|
G|---------------------------------------------------------------------|
D|---------------3--------------------------------3--------------------|
A|-----5-4---4-5-1------5-4---4-5-4-----5-4---4-5-1------5-4---4-5-4---|
E|-0---3-2-0-2-3----0---3-2-0-2-3-2-0---3-2-0-2-3----0---3-2-0-2-3-2---|



E|----------------------------------------------------------------------|
B|----------------------------------------------------------------------|
G|----------------------------------------------------------------------|
D|---------------3--------------------------------3---------------------|
A|-----5-4---4-5-1------5-4---4-5-4-----5-4---4-5-1------5-4---4-5-4-2--|
E|-0---3-2-0-2-3----0---3-2-0-2-3-2-0---3-2-0-2-3----0---3-2-0-2-3-2-0--|
722 exibições

Comentários 0

Composição: Osbourne / Iommi / Butler
Esse não é o compositor? Avise-nos.
Contribuição: cesar.winters.7 Correções: João Vitor »
Consegui tocarAinda não conseguiram tocar essa música. Seja o primeiro!
    Não consegui tocar
    Exibir acordes »
    publicidade
    fechar