Voyeur

Blink 182

 Blink 182
Tom: C
		
A intro é feita na batera. 

Verso 1 (abafado, solto apenas no começo de cada acorde):

C5                        A5             F5
and when the day ends i'm sure she feels sorrow
C5                    A5              F5
the lonely guy i am i wait for her to change

Os mesmos acordes, mas todos solto, não é abafado.

i've been here 2 days and i'll sure be here tomorrow
i'd eat her all if she were on my dinner plate and i wish

Refrão:

G5           F5           Riff 1
i wish she'd be more kind now
G5         F5             C5                 G5
i'm out of luck cause the shades are pulled down
G5        F5               C5       G5
i've seen everything there is to be shown
G5             F5          Riff 1(2 vezes)
i followed her all the way home

Verso 2(do mesmo jeito do primeiro):
i can't be too cool in a tree with my pants down
the air is cold and i've got splinters in my feet
she caught me once but i don't think that she cares now
unlike before her view is now blocked by a leaf and i wish

Refrão

Ponte:


C5         F5              G5         F5
i bet this last time's the 1 time too many
C5          F5         G5                 F5
the rush of waiting is burning through my head
C5          F5         G5              F5
right after supper her brother showers twice a week
C5          F5               G5             F5   G5
he kicks my ass so much that filthy white inbred

Verso 3(também do mesmo jeito do primeiro e do segundo):

i've made mistakes by looking in the wrong window
her dad is big and i have never seen his face
i've been here 2 days and i'll sure be here tomorrow
my lady's so sweet she likes to entertain and i wish

Refrão

Ponte

Nessa parte fica só o baixo muito rápido:


G|-------------------------------|
D|-------------------------------| (2 vezes)
A|-1-1-1-------3-3-3-1-1-1-----3-|
E|-------1-1-1-------------1-1---|


Depois entra a guitarra:


e|-------------------------------|
B|-------------------------------|
G|-3-3-3-------5-5-5-3-3-3-----5-|
D|-3-3-3-3-3-3-5-5-5-3-3-3-3-3-5-|
A|-1-1-1-3-3-3-3-3-3-1-1-1-3-3-3-|
E|-------1-1-1-------------1-1---|


E acaba no riff 1 2 vezes..

Riff 1:


e|-------------------------------------|
B|-------------------------------------|
G|-------------------------------------|
D|-----------------3-------------------|
A|-3pm-3pm-3pm-3pm---3pm-3pm-3pm-3pm---|
E|-----------------------------------3-|

Comentários 0

Exibir acordes »
publicidade
fechar