Na Contramão do Mundo

Bob Jonathan

Sem foto do Bob Jonathan Compositor: bob jonathan
Tom: G
		
Intro 2x:  G D9 C G


         G             D9           C9          G
E|-------------8/10--------8/10--------------------------|
B|--5/12-------------10------------8-------8--10--12-12--|
G|--------------------------------------7----------------|
D|-------------------------------------------------------|
A|-------------------------------------------------------|
E|-------------------------------------------------------|



         G             D9           C9          G                 G
E|-------------8/10--------8/10--------------------------|--------|
B|--5/12-------------10------------8-------8--10--12-12--|---12/8-|
G|--------------------------------------7----------------|--------|
D|-------------------------------------------------------|--------|
A|-------------------------------------------------------|--------|
E|-------------------------------------------------------|--------|


G
Eu ando na contramão do mundo
D9
 Eu fujo de toda tentação
         Am7                      C             G G7M G4/6
Pra não pecar contra Ti E não magoar o Teu coração


E|--------------|
B|--7/8--7------|
G|----------5/7-|
D|--------------|
A|--------------|
E|--------------|


G                               D9
Eu vejo pessoas vindo em direção
D9
 Não paro não posso perder a visão
    Am7              C                  G G7M G
De um adorador que o alvo é somente te buscar

                 D/F#                    Em7
Estou em busca de algo que ouvidos não ouviram
C                     G
Que olho algum jamais viu
             D/F#            Em7
Que nunca chegou ao coração humano
         C             D
É o que Deus tem para mim Eu vou...

G            D/F# Em7       C
Eu vou caminhando rumo à Jesus
G               D/F#          Am7  (C)
Se quiser vir comigo vamos andar

                 G          D/F#
Na contramão do mundo (ie-eee)
                 Am          C
Na contramão do mundo (ie-eee)   (2x)
8.220 exibições

Comentários 0

Composição: Sabe quem é o compositor? Envie pra gente. Contribuição: soul Correções: alexpires , santos89 e mais 3 »
Exibir acordes »
publicidade
fechar