I'll be there for you

Bon Jovi

 Bon Jovi
Tom: D
		
Intro:

E|---------------------------------------|
B|---------------------------------------|
G|-5/7--7--7/9--9--9/12--12--12\11--11---|
D|-0----0--0----0--0-----0---0------0----|
A|---------------------------------------|
E|---------------------------------------|


Intro 2:

E|---------------------------------------|
B|---------------------------------------|
G|-5/7--7--7/9--9--9/12--12-11-----------|
D|-0----0--0----0--0---------------------|
A|---------------------------------------|
E|---------------------------------------|



      Em     G
E|-0------3---|
B|-0------3---|
G|-0------0---|
D|-2------0---|
A|-2------2---|
E|-0-2-3--3---|


                              Em
I guess this time you're really leaving
G                            D
I hear your suitcase say good-bye
                            Em
and as my broken heart lies bleeding
G                       D
you say true love is suicide.
                            Em
You say you cried a thousand rivers
G                                  D
and now you're swimming for the shore
D                       Em
you left me drowning in my tears
G                        A
and you won't save me anymore.
(Aqui não toca nada, somente o vocal)
I'm praying to God you'll give me one more chance girl.

Refrão:
D
I'll be there for you
Bm
these five words I swear to you
         G
when you breathe I wanna be the air for you
A        C    G    D
I'll be there for you.
D
I'd live and I'd die for you
Bm
I'd steal the sun from the sky for you
G
words can't say what love can do
A        C    G   (Intro 2)
I'll be there for you

                           Em
I know you know we've had some good times
G                                D
now they have their own hiding place
                     Em
I can promise you tomorrow
G                           A
but I can't buy back yesterday.
                                   G                                       A
And baby you know my hands are dirty (and baby you know my hands are dirty)
                              D  A/C#   Bm
but I wanted to be your valenti ...... ne
                               G
I'll be the water when you get thirsty baby
                                A
when you get drunk I'll be the wine.

D
I'll be there for you
Bm
these five words I swear to you
         G
when you breathe I wanna be the air for you
A        C    G    D
I'll be there for you.
D
I'd live and I'd die for you
Bm
I'd steal the sun from the sky for you
G
words can't say what love can do
A        C    G   D
I'll be there for you.

(Solo - a base do solo é a mesma do refrão)

D Bm G A C G D D Bm G A C G D


E|----------------------------|
B|--7-------------------------|
G|--9b11--9p7---7~----7~--7---|
D|------------9-----9---------|
A|----------------------------|
E|----------------------------|



E|----------------------------|
B|--7------------7~--7--------|
G|--9b11--9p7--9-------9~-----|
D|----------------------------|
A|----------------------------|
E|----------------------------|



E|---------------------------------------------|
B|---------------------------------------------|
G|---------------------------------------------|
D|--------12-12-x-------12-12-x-------12-12-x--|
A|--12h14---------12h14---------12h14----------|
E|---------------------------------------------|



E|-------------------------------------------------|
B|-------------------------------------------------|
G|--------------11-11------------------11~---------|
D|--12----14b16--------14b16r14-12----------14-12--|
A|-----14--------------------------14--------------|
E|-------------------------------------------------|



E|------------------------------|
B|------------------------------|
G|------------------------------|
D|------------------------------|
A|--7h9p7----7h9p7-9/10-10-9-7--|
E|--------10--------------------|



E|------------------------------|
B|------------------------------|
G|------------------------------|
D|------------------------------|
A|--7h9p7----7h9p7-9/10-10-9-7--|
E|--------10--------------------|



E|----------7----------------|
B|----10b12---10p7-----------|
G|--7--------------10p9p7h9--| (Se está achando difícil, pode apenas palhetar
D|---------------------------|  as casas no lugar dos bends e pull-offs. Ex original: 10p9p7h9
A|---------------------------|  Ex simplificada: 10-9-7-9)
E|---------------------------|



E|----------------------------------------7---------------|
B|--10p7----------------------------10b12---10p7----------|
G|-------10p9p7h9--10p9p7h9--9b11-7--------------10p9p7~--|
D|--------------------------------------------------------|
A|--------------------------------------------------------|
E|--------------------------------------------------------|


                                     G                                          A
And I wasn't there when you where happy (and i wasn't there when you where happy)
                                     D  A/C#   Bm
and I wasn't there when you were down, down down
                             G
I didn't mean to miss your birthday baby
                                   A
I wish I'd seen you blow those candles out.

D
I'll be there for you
Bm
these five words I swear to you
         G
when you breathe I wanna be the air for you
A        C    G    D
I'll be there for you.
D
I'd live and I'd die for you
Bm
I'd steal the sun from the sky for you
G
words can't say what love can do
A       C    G
I'll be there for...

[Aumenta o Tom para E]

E
I'll be there for you
C#m
these five words I swear to you
          A
when you breathe I wanna be the air for you
B        D    A   E
I'll be there for you.
E
I'd live and I'd die for you
C#m
I'd steal the sun from the sky for you
A
words can't say what love can do
B        D     A  E
I'll be there for you.


(Toca-se a base baixo duas vezes, mesmo ritmo do refrão)
Uôôô Uôôôuô     Uôôô Uôôô
E C#m A B D A E E C#m A B D A E 2x

(Toca-se a intro 1 e 2)

Comentários 18

  • Matheus Matheus: Postado em 13/01/2014 21:48

    Coloquei os solos /fuckyea

  • thiago.rosendo thiago.rosendo: Postado em 20/08/2013 19:20

    Fica bacana com esse ritmo ↓↓↑↑↓↓↑↓↑...

  • weslley.silva.9237 weslley.silva.9237: Postado em 22/04/2013 00:55

    ta faltando os soloskeria uma video aula dessa musica

  • alexmb alexmb: Postado em 19/11/2012 23:53

    Pra que vídeo aula? tem as notas e pra pegar o ritmo só ouvir a música. Larguem a mão de ser preguiçosos!

    • rafaelroses rafaelroses: Postado em 07/12/2012 22:31

      eos solos meu querido, nao sou nenhum formado em musica nao

    • Ana Carolina Ana Carolina: Postado em 18/12/2013 13:14

      Nem eu e toquei ela no violão, para de noia e se esforça

    • wandersonalvessouza wandersonalvessouza: Postado em 29/11/2014 21:23

      Comentário removido

  • taynaooliveira taynaooliveira: Postado em 23/06/2012 15:14

    Video Aula please

  • vanybonjovi vanybonjovi: Postado em 01/06/2012 14:41

    seria bom uma video aula dessa musica, ela é superfacil, bem q eles podiam fazer..

  • matheus.atallah matheus.atallah: Postado em 05/01/2012 12:30

    Bm A/C# D A/C# Bm
    but I wanted to be your valenti ...... ne

Exibindo 10 de 18 comentários Mostrar mais ver todos »
Composição: James Scheffer / Jon Bon Jovi / Nick Hodgson / Ricardo Brown / Richie Sambora
Esse não é o compositor? Avise-nos.
Contribuição: Marcelo Correções: Matheus , Matheus e mais 10 »
Exibir acordes »
publicidade
fechar