Bon Jovi

Livin' On A Prayer

38.759 exibições
Introdução

Once upon a time,not so long ago

Parte 01 ( Tocar 8x )

G|--------------------------------------------|
D|--------------------------------------------|
A|---7---5--------5----7---5--------5---------|
E|-0---7---0-0--7----0---7---0-0--7-----------|

Primeira parte

Tommy used to work on the docks...

Parte 01 ( tocar 3x )

G|--------------------------------------------|
D|--------------------------------------------|
A|---7---5--------5----7---5--------5---------|
E|-0---7---0-0--7----0---7---0-0--7-----------|

Parte 02

G|--------------------------------------------|
D|----------------------------5p4-5p4---------|
A|---7---5--------5----7---5------------------|
E|-0---7---0-0--7----0---7--------------------|

Parte 03 ( tocar 3x )

G|--------------------------------------------|
D|--------------------------------------------|
A|---7---5--------5----7---5--------5---------|
E|-0---7---0-0--7----0---7---0-0--7-----------|

Parte 04

G|--------------------------------------------|
D|--------------------------------------------|
A|---7---5--------5----7---5------------------|
E|-0---7---0-0--7----0---7---0-0-2-3----------|

Pré - Refrão

She says: "We've got to hold on to what...

Parte 01

G|--------------------------------------------|
D|--------------------------------------------|
A|-3-3-3--5-5-5-5--5-5-5-5-5--7-7-7-7---------|
E|--------------------------------------------|

G|--------------------------------------------|
D|--------------------------------------------|
A|-3-3-3--5-5-5-5---5-7-7h9-7-7-7\------------|
E|----------------5---------------------------|

Parte 02

G|--------------------------------------------|
D|--------------------------------------------|
A|-3-3-3--5-5-5-5--5-5-5-5-5--7-7-5-----------|
E|--------------------------------------------|

G|--------------------------------------------|
D|--------------------------------------------|
A|-3-----3-3-----3--5-5-5-5-------------------|
E|---3h5-----3h5--------------12\-------------|

Refrão

Oh, we're half way there...

Parte 01

G|--------------------------------------------|
D|------------------------------2-4-5---------|
A|-------3-3-2-3-3--5-5-5-5-5-5---------------|
E|-0-2-3--------------------------------------|

G|--------------------------------------------|
D|--------------------------------------------|
A|-5-2-3-3-2-3-3--5-5-5-5--5-5----------------|
E|-----------------------------3-2------------|

Parte 02

G|--------------------------------------------|
D|------------------------------2-4-5---------|
A|-------3-3-2-3-3--5-5-5-5-5-5---------------|
E|-0-2-3--------------------------------------|

G|--------------------------------------------|
D|--------------------------------------------|
A|-5 2-3-3-2-3-3--5-5-5-5--5-5-5-5------------|
E|--------------------------------------------|

Introdução 02

Parte 01 

G|--------------------------------------------|
D|--------------------------------------------|
A|---7---5--------5----7---5--------5---------|
E|-0---7---0-0--7----0---7---0-0--7-----------|

Segunda parte 

Tommy got his six string in hock...

Parte 01 ( tocar 3x )

G|--------------------------------------------|
D|--------------------------------------------|
A|---7---5--------5----7---5--------5---------|
E|-0---7---0-0--7----0---7---0-0--7-----------|

Parte 02

G|--------------------------------------------|
D|----------------------------5p4-------------|
A|---7---5--------5----7---5------7-5---------|
E|-0---7---0-0--7----0---7--------------------|
Parte 03 ( tocar 3x )

G|--------------------------------------------|
D|--------------------------------------------|
A|---7---5--------5----7---5--------5---------|
E|-0---7---0-0--7----0---7---0-0--7-----------|

Parte 04

G|--------------------------------------------|
D|--------------------------------------------|
A|---7---5--------5----7---5------------------|
E|-0---7---0-0--7----0---7---0-0-2-3----------|

Pré – Refrão 2

She says: "We've got to hold on to what...

Parte 01

G|--------------------------------------------|
D|--------------------------------------------|
A|-3-3-3--5-5-5-5--5-5-5-5-5--7-7-7-7---------|
E|--------------------------------------------|

G|--------------------------------------------|
D|--------------------------------------------|
A|-3-3-3--5-5-5-5---5-7-7h9-7-7-7\------------|
E|----------------5---------------------------|

Parte 02

G|--------------------------------------------|
D|--------------------------------------------|
A|-3-3-3--5-5-5-5--5-5-5-5-5--7-7-5-----------|
E|--------------------------------------------|

G|--------------------------------------------|
D|--------------------------------------------|
A|-3-----3-3-----3--5-5-5-5-------------------|
E|---3h5-----3h5--------------12\-------------|

Refrão 02

Oh, we're half way there...

Parte 02

G|--------------------------------------------|
D|------------------------------2-4-5---------|
A|-------3-3-2-3-3--5-5-5-5-5-5---------------|
E|-0-2-3--------------------------------------|

G|--------------------------------------------|
D|--------------------------------------------|
A|-5-2-3-3-2-3-3--5-5-5-5--5-5----------------|
E|-----------------------------3-2------------|

Parte 02

G|--------------------------------------------|
D|------------------------------2-4-5---------|
A|-------3-3-2-3-3--5-5-5-5-5-5---------------|
E|-0-2-3--------------------------------------|

G|--------------------------------------------|
D|--------------------------------------------|
A|-5-2-3-3-2-3-3--5-5-5-5--5-5-5-5------------|
E|--------------------------------------------|

G|--------------------------------------------|
D|---5-5/10-----------------------------------|
A|-3------------------------------------------|
E|----------12\-------------------------------|

Solo de guitarra

Parte 01

G|--------------------------------------------|
D|-------------------------2-2-4-4--5---------|
A|-------3-2-3-3--5-5-5-5---------------------|
E|-0-2-3--------------------------------------|

G|--------------------------------------------|
D|--------------------------------------------|
A|-5-2-3-2-3-7-5-5-5-5-5-5--------------------|
E|-------------------------3-2----------------|

Parte 02

G|--------------------------------------------|
D|----------------------------2-4-5-----------|
A|-------3-2-3-3--5-5-5-5-5-5-----------------|
E|-0-2-3--------------------------------------|

G|--------------------------------------------|
D|--------------------------------------------|
A|-5-2-3-2------------------------------------|
E|---------3/10--0-0-0-0--0-0-0-0-------------|

G|--------------------------------------------|
D|--------------------------------------------|
A|--------------0-2---------------------------|
E|-0-0-0-0--0-0-------------------------------|

Pré – Refrão 3

"We've got to hold on to what...

Parte 01

G|--------------------------------------------|
D|--------------------------------------------|
A|-3-3-3--5-5-5-5--5-5-5-5-5--7-7-5-----------|
E|--------------------------------------------|

G|--------------------------------------------|
D|--------------------------------------------|
A|-3--3-3-------------------------------------|
E|---------10-10-10-10\-----------------------|

Refrão 03 ( Final )

Oh, we're half way there...

Parte 01

G|--------------------------------------------|
D|----------------------------5-7-8-----------|
A|-------6-5-6-6--8-8-8-8-8-8-------8-5-6-6-5-|
E|-3-5-6--------------------------------------|

G|--------------------------------------------|
D|--------------------------------------------|
A|-6-6--8-8-8-8-8-----------------------------|
E|-----------------x-x-6-5--------------------|

Parte 02

G|--------------------------------------------|
D|---------------------------5-5-5-7-7--------|
A|-------6-6-5-6--8h10-8-8-8------------------|
E|-3-5-6--------------------------------------|

G|--------------------------------------------|
D|-8------------------------------------------|
A|---8-5-6-6-5-6-6--8-6-6-8-6-6-8-6-6-8-------|
E|--------------------------------------6-5---|

Parte 03

G|--------------------------------------------|
D|----------------------------10-9-8----------|
A|-------6-5-6-6--8-8-8-8-8-8-------8-5-6-6-5-|
E|-3-5-6--------------------------------------|

G|--------------------------------------------|
D|--------------------------------------------|
A|-6-6--8-8-8-8-8-8-8-------------------------|
E|--------------------6-5---------------------|

Parte 04

G|--------------------------------------------|
D|----------------------------5-7-8-----------|
A|-------6-5-6-6--8-8-8-8-8-8-------8-5-6-6-5-|
E|-3-5-6--------------------------------------|

G|--------------------------------------------|
D|--------------------------------------------|
A|-6-6--8-6-6-8-6-6-8-6-6-8-------------------|
E|--------------------------6-5---------------|

Parte 05 ( fade Out ) 

G|--------------------------------------------|
D|----------------------------5-7-8-----------|
A|-------6-5-6-6--8-8-8-8-8-8-------8-5-6-6-5-|
E|-3-5-6--------------------------------------|

G|--------------------------------------------|
D|--------------------------------------------|
A|-6-6--8-8-8-8-8-8---------------------------|
E|------------------6-5-----------------------|
    Composição: Jon Bon Jovi / Richie Sambora / Desmond ChildColaboração e revisão:
    • Reginaldo
    • Bruno Andrade
    • Ray Jackson

    Comentários 0

    140 .
    140 cancelar

    conseguiu tocar?

    • Carlos
    • Lucas Hideki
    • iigor_azz
    • zith
    • igorkaires
    • vinicius
    • ivomars
    • •••
    0:00 / 0:00
    2 versões de baixo exibições contribuição e correção
    1 versão de bateria exibições contribuição e correção
    1 versão de partiturasformatodownloadscontribuição
    play/pausefechar subir/descer velocidade
    6ª corda E5ª corda A4ª corda D3ª corda G2ª corda B1ª corda E
      acordes
      versão revisada Reginaldo instrutor de baixo
      publicidad
      fechar
      ok