Livin' On A Prayer

Bon Jovi

 Bon Jovi
 P.M  .   .     .   .

G|----------------------------------------------------|
D|----------------------------------------------------|
A|----5---7---------5---------------------------------|
E|--------------8-------------------------------------|

riff principal

G|----------------------------------------------------|
D|----------------------------------------------------|
A|---7---5-------5------------------------------------|
E|-0---7---0-0-7--------------------------------------| (4x)

junto com a guitarra

G|----------------------------------------------------|
D|----------------------------------------------------|
A|---7---5-------5------------------------------------|
E|-0---7---0-0-7--------------------------------------| (12X)

1° verso

G|----------------------------------------------------|
D|----------------------------------------------------|
A|---7---5-------5------------------------------------|
E|-0---7---0-0-7--------------------------------------| (7x)

variação 1

G|----------------------------------------------------|
D|----------------------------------------------------|
A|---7---5-10-9-10-9----------------------------------|
E|-0---7----------------------------------------------|

2° verso

G|----------------------------------------------------|
D|----------------------------------------------------|
A|---7---5-------5------------------------------------|
E|-0---7---0-0-7--------------------------------------| (7X)

variação 2

G|----------------------------------------------------|
D|----------------------------------------------------|
A|---7---5-7------------------------------------------|
E|-0---7-----5-6-7------------------------------------|

pré refrão

G|---------------------------------------------------------|
D|---------------------------------------------------------|
A|-------------------------------7-7-7---------------------|
E|-8-8-8-10-10-10-10-10-10-10-10---------------------------|

G|---------------------------------------------------------|
D|---------------------------------------------------------|
A|----------------------------------7--9--7-7--------------|
E|-10-8-8-8-10-10-10-10-10-10-10-10-----------10-10--------|

G|----------------------------------------------------------------|
D|----------------------------------------------------------------|
A|-------------------------------7-7--5--3---2-3---2-3-5-5-5-5----|
E|-8-8-8-10-10-10-10-10-10-10-10-----------3------3------------5\-|

refrão

G|----------------------------------------------------------|
D|-------------------------2-4-5----------------------------|
A|-------3-2-3-5-5-5-5-5-5-------5-2-3-2---5-5-5-5-2--------|
E|-0-2-3---------------------------------3-----------3-2----| 

G|----------------------------------------------------------|
D|-------------------------2-4-5----------------------------|
A|-------3-2-3-5-5-5-5-5-5-------5-2-3-2---5-5-5-5----------|
E|-0-2-3---------------------------------3------------------| 

3° verso

G|----------------------------------------------------|
D|----------------------------------------------------|
A|---7---5-------5------------------------------------|
E|-0---7---0-0-7--------------------------------------| (7x)

variação 3

G|----------------------------------------------------|
D|----------------------------------------------------|
A|---7---5-10-9-7-------------------------------------|
E|-0---7----------10----------------------------------| 

4° verso

G|----------------------------------------------------|
D|----------------------------------------------------|
A|---7---5-------5------------------------------------|
E|-0---7---0-0-7--------------------------------------| (7x)

variação 2

G|----------------------------------------------------|
D|----------------------------------------------------|
A|---7---5-7------------------------------------------|
E|-0---7-----5-6-7------------------------------------|


pré refrão

G|---------------------------------------------------------|
D|---------------------------------------------------------|
A|-------------------------------7-7-7---------------------|
E|-8-8-8-10-10-10-10-10-10-10-10---------------------------|

G|---------------------------------------------------------|
D|---------------------------------------------------------|
A|----------------------------------7--9--7-7--------------|
E|-10-8-8-8-10-10-10-10-10-10-10-10-----------10-10--------|

G|----------------------------------------------------------------|
D|----------------------------------------------------------------|
A|-------------------------------7-7--5--3---2-3---2-3-5-5-5-5----|
E|-8-8-8-10-10-10-10-10-10-10-10-----------3------3------------5\-|

refrão

G|----------------------------------------------------------|
D|-------------------------2-4-5----------------------------|
A|-------3-2-3-5-5-5-5-5-5-------5-2-3-2---5-5-5-5-2--------|
E|-0-2-3---------------------------------3-----------3-2----| 

G|----------------------------------------------------------|
D|-------------------------2-4-5----------------------------|
A|-------3-2-3-5-5-5-5-5-5-------5-2-3-2---5-5-5-5----------|
E|-0-2-3---------------------------------3------------------| 

passagem 

G|----------------------------------------------------|
D|---4/5-9/10-----------------------------------------|
A|-3--------------------------------------------------|
E|------------8\--------------------------------------|

solo

G|----------------------------------------------------------|
D|-------------------------2-4-5----------------------------|
A|-------3-2-3-5-5-5-5-5-5-------5-2-3-2---5-5-5-5-2--------|
E|-0-2-3---------------------------------3-----------3-2----| 

G|-----------------------------------------------------------------|
D|-------------------------2-4-5-----------------------------------|
A|-------3-2-3-5-5-5-5-5-5-------5-2-3-2---------------------------|
E|-0-2-3---------------------------------3-0-0-0-0-0-0-0-0-0-0-0-0-| 

pré refrão 

G|----------------------------------------------------|
D|----------------------------------------------------|
A|---2-3-3-3-5-5-5-5-5-5-5-5-7-7-5-3--3-3-5-5-5-5-----|
E|-3--------------------------------------------------|

refrão

G|----------------------------------------------------------|
D|-------------------------5-7-8----------------------------|
A|-------6-5-6-8-8-8-8-8-8-------8-5-6-5---8-8-8-8-5--------|
E|-3-5-6---------------------------------6-----------6-5----| (4X)

depois a musica segue para seu final com o refrão em fade out

Comentários 0

Composição: Jon Bon Jovi / Richie Sambora / Desmond Child
Esse não é o compositor? Avise-nos.
Contribuição: Ray Jackson Correções: Bruno Andrade »
  1. Domingo de Manhã - Marcos e Belutti Manteve-se 96.264 exibições
  2. Até Você Voltar - Henrique e Juliano Manteve-se 55.457 exibições
  3. Pra Você - Onze:20 Manteve-se 48.991 exibições
  4. Recaídas - Henrique e Juliano Manteve-se 41.756 exibições
  5. Logo Eu - Jorge e Mateus Manteve-se 40.010 exibições
  6. Evidências - Chitãozinho & Xororó Manteve-se 35.919 exibições
  7. Só Os Loucos Sabem - Charlie Brown Jr. Manteve-se 31.813 exibições
  8. Cuida Bem Dela - Henrique e Juliano Manteve-se 31.163 exibições
  9. Pais e Filhos - Legião Urbana Manteve-se 29.531 exibições
  10. Give Me Love - Ed Sheeran Manteve-se 29.506 exibições
  1. Jorge e Mateus- Manteve-se 251.571 exibições
  2. Legião Urbana- Manteve-se 211.240 exibições
  3. Henrique e Juliano- Manteve-se 192.369 exibições
  4. Charlie Brown Jr.- Manteve-se 151.943 exibições
  5. Bruno e Marrone- Manteve-se 133.779 exibições
  6. Fernandinho- Manteve-se 118.729 exibições
  7. Marcos e Belutti- Manteve-se 117.826 exibições
  8. Luan Santana- Manteve-se 111.298 exibições
  9. Thalles Roberto- Manteve-se 93.703 exibições
  10. Victor e Leo- Manteve-se 91.274 exibições

Cifras e tabs

Fórum Cifra Club

Aprenda

Cifra Club News

Mais Serviços Cifra Club ID

Studio Sol

©1996 - 2014 Cifra Club · o primeiro, maior e mais acessado do Brasil · 337 mil músicas · 6.2 milhões pessoas cadastradas

publicidade
fechar