Livin' On A Prayer

Bon Jovi

 Bon Jovi
 P.M  .   .     .   .

G|----------------------------------------------------|
D|----------------------------------------------------|
A|----5---7---------5---------------------------------|
E|--------------8-------------------------------------|

riff principal

G|----------------------------------------------------|
D|----------------------------------------------------|
A|---7---5-------5------------------------------------|
E|-0---7---0-0-7--------------------------------------| (4x)

junto com a guitarra

G|----------------------------------------------------|
D|----------------------------------------------------|
A|---7---5-------5------------------------------------|
E|-0---7---0-0-7--------------------------------------| (12X)

1° verso

G|----------------------------------------------------|
D|----------------------------------------------------|
A|---7---5-------5------------------------------------|
E|-0---7---0-0-7--------------------------------------| (7x)

variação 1

G|----------------------------------------------------|
D|----------------------------------------------------|
A|---7---5-10-9-10-9----------------------------------|
E|-0---7----------------------------------------------|

2° verso

G|----------------------------------------------------|
D|----------------------------------------------------|
A|---7---5-------5------------------------------------|
E|-0---7---0-0-7--------------------------------------| (7X)

variação 2

G|----------------------------------------------------|
D|----------------------------------------------------|
A|---7---5-7------------------------------------------|
E|-0---7-----5-6-7------------------------------------|

pré refrão

G|---------------------------------------------------------|
D|---------------------------------------------------------|
A|-------------------------------7-7-7---------------------|
E|-8-8-8-10-10-10-10-10-10-10-10---------------------------|

G|---------------------------------------------------------|
D|---------------------------------------------------------|
A|----------------------------------7--9--7-7--------------|
E|-10-8-8-8-10-10-10-10-10-10-10-10-----------10-10--------|

G|----------------------------------------------------------------|
D|----------------------------------------------------------------|
A|-------------------------------7-7--5--3---2-3---2-3-5-5-5-5----|
E|-8-8-8-10-10-10-10-10-10-10-10-----------3------3------------5\-|

refrão

G|----------------------------------------------------------|
D|-------------------------2-4-5----------------------------|
A|-------3-2-3-5-5-5-5-5-5-------5-2-3-2---5-5-5-5-2--------|
E|-0-2-3---------------------------------3-----------3-2----| 

G|----------------------------------------------------------|
D|-------------------------2-4-5----------------------------|
A|-------3-2-3-5-5-5-5-5-5-------5-2-3-2---5-5-5-5----------|
E|-0-2-3---------------------------------3------------------| 

3° verso

G|----------------------------------------------------|
D|----------------------------------------------------|
A|---7---5-------5------------------------------------|
E|-0---7---0-0-7--------------------------------------| (7x)

variação 3

G|----------------------------------------------------|
D|----------------------------------------------------|
A|---7---5-10-9-7-------------------------------------|
E|-0---7----------10----------------------------------| 

4° verso

G|----------------------------------------------------|
D|----------------------------------------------------|
A|---7---5-------5------------------------------------|
E|-0---7---0-0-7--------------------------------------| (7x)

variação 2

G|----------------------------------------------------|
D|----------------------------------------------------|
A|---7---5-7------------------------------------------|
E|-0---7-----5-6-7------------------------------------|


pré refrão

G|---------------------------------------------------------|
D|---------------------------------------------------------|
A|-------------------------------7-7-7---------------------|
E|-8-8-8-10-10-10-10-10-10-10-10---------------------------|

G|---------------------------------------------------------|
D|---------------------------------------------------------|
A|----------------------------------7--9--7-7--------------|
E|-10-8-8-8-10-10-10-10-10-10-10-10-----------10-10--------|

G|----------------------------------------------------------------|
D|----------------------------------------------------------------|
A|-------------------------------7-7--5--3---2-3---2-3-5-5-5-5----|
E|-8-8-8-10-10-10-10-10-10-10-10-----------3------3------------5\-|

refrão

G|----------------------------------------------------------|
D|-------------------------2-4-5----------------------------|
A|-------3-2-3-5-5-5-5-5-5-------5-2-3-2---5-5-5-5-2--------|
E|-0-2-3---------------------------------3-----------3-2----| 

G|----------------------------------------------------------|
D|-------------------------2-4-5----------------------------|
A|-------3-2-3-5-5-5-5-5-5-------5-2-3-2---5-5-5-5----------|
E|-0-2-3---------------------------------3------------------| 

passagem 

G|----------------------------------------------------|
D|---4/5-9/10-----------------------------------------|
A|-3--------------------------------------------------|
E|------------8\--------------------------------------|

solo

G|----------------------------------------------------------|
D|-------------------------2-4-5----------------------------|
A|-------3-2-3-5-5-5-5-5-5-------5-2-3-2---5-5-5-5-2--------|
E|-0-2-3---------------------------------3-----------3-2----| 

G|-----------------------------------------------------------------|
D|-------------------------2-4-5-----------------------------------|
A|-------3-2-3-5-5-5-5-5-5-------5-2-3-2---------------------------|
E|-0-2-3---------------------------------3-0-0-0-0-0-0-0-0-0-0-0-0-| 

pré refrão 

G|----------------------------------------------------|
D|----------------------------------------------------|
A|---2-3-3-3-5-5-5-5-5-5-5-5-7-7-5-3--3-3-5-5-5-5-----|
E|-3--------------------------------------------------|

refrão

G|----------------------------------------------------------|
D|-------------------------5-7-8----------------------------|
A|-------6-5-6-8-8-8-8-8-8-------8-5-6-5---8-----8-----8----|
E|-3-5-6---------------------------------6---8x8---8x8--8\--| (8X)

depois a musica segue para seu final com o refrão em fade out

Comentários 0

Composição: Jon Bon Jovi / Richie Sambora / Desmond Child
Esse não é o compositor? Avise-nos.
Contribuição: Ray Jackson Correções: Bruno Andrade e mais 1 »
publicidade
fechar