Livin' On A Prayer

Bon Jovi

 Bon Jovi
G||------------------|------------------|------------------|
D||------------------|------------------|------------------|
A||------------------|------------------|------------------|
E||------------------|------------------|------------------|


                                                     
------------------|------------------|--------------|
------------------|------------------|--------------|
------------------|------------------|--------------|
------------------|------------------|--------------|


                                                      
--------------------------|--------------------------|
-----2-----0-----------0--|-----2-----0-----------0--|
--------2-----------2-----|--------2-----------2-----|
--0-----------0--0--------|--0-----------0--0--------|


                                                      
--------------------------|--------------------------|
-----2-----0-----------0--|-----2-----0-----------0--|
--------2-----------2-----|--------2-----------2-----|
--0-----------0--0--------|--0-----------0--0--------|


                                                      
--------------------------|--------------------------|
-----2-----0-----------0--|-----2-----0-----------0--|
--------2-----------2-----|--------2-----------2-----|
--0-----------0--0--------|--0-----------0--0--------|


                                                      
--------------------------|--------------------------|
-----2-----0-----------0--|-----2-----0-----------0--|
--------2-----------2-----|--------2-----------2-----|
--0-----------0--0--------|--0-----------0--0--------|


                                                      
--------------------------|--------------------------|
-----2-----0-----------0--|-----2-----0-----------0--|
--------2-----------2-----|--------2-----------2-----|
--0-----------0--0--------|--0-----------0--0--------|


                                                      
--------------------------|--------------------------|
-----2-----0-----------0--|-----2-----0-----------0--|
--------2-----------2-----|--------2-----------2-----|
--0-----------0--0--------|--0-----------0--0--------|


                                                      
--------------------------|--------------------------|
-----2-----0-----------0--|-----2-----0-----------0--|
--------2-----------2-----|--------2-----------2-----|
--0-----------0--0--------|--0-----------0--0--------|


                                                      
--------------------------|--------------------------|
-----2-----0-----------0--|-----2-----0-----------0--|
--------2-----------2-----|--------2-----------2-----|
--0-----------0--0--------|--0-----------0--0--------|


                                                      
--------------------------|--------------------------|
-----2-----0-----------0--|-----2-----0-----------0--|
--------2-----------2-----|--------2-----------2-----|
--0-----------0--0--------|--0-----------0--0--------|


                                                      
--------------------------|--------------------------|
-----2-----0-----------0--|-----2-----0-----------0--|
--------2-----------2-----|--------2-----------2-----|
--0-----------0--0--------|--0-----------0--0--------|


                                                      
--------------------------|--------------------------|
-----2-----0-----------0--|-----2-----0-----------0--|
--------2-----------2-----|--------2-----------2-----|
--0-----------0--0--------|--0-----------0--0--------|


                                                      
--------------------------|--------------0-----0-----|
-----2-----0-----------0--|-----2-----0-----4-----4--|
--------2-----------2-----|--------2-----------------|
--0-----------0--0--------|--0-----------------------|


                                                      
--------------------------|--------------------------|
-----2-----0-----------0--|-----2-----0-----------0--|
--------2-----------2-----|--------2-----------2-----|
--0-----------0--0--------|--0-----------0--0--------|


                                                      
--------------------------|--------------------------|
-----2-----0-----------0--|-----2-----0-----------0--|
--------2-----------2-----|--------2-----------2-----|
--0-----------0--0--------|--0-----------0--0--------|


                                                      
--------------------------|--------------------------|
-----2-----0-----------0--|-----2-----0-----------0--|
--------2-----------2-----|--------2-----------2-----|
--0-----------0--0--------|--0-----------0--0--------|


                                                      
--------------------------|--------------0-----0-----|
-----2-----0-----------0--|-----2-----0-----4-----4--|
--------2-----------2-----|--------2-----------------|
--0-----------0--0--------|--0-----------------------|


                                                     
--------------------------|-------------------------|
-----------0--0--0--0--0--|--0--0--0--0--2--2--2----|
--3--3--3-----------------|-------------------------|
--------------------------|-------------------------|


                                                     
--------------------------|--------0----------------|
-----------0--0--0--0--0--|--0--2-----4--2--2--2----|
--3--3--3-----------------|-------------------------|
--------------------------|-------------------------|


                                                     
--------------------------|-------------------------|
-----------0--0--0--0--0--|--0--0--0--0--2--2--0----|
--3--3--3-----------------|-------------------------|
--------------------------|-------------------------|


                                                     
-------------------------|--------------------------|
-------------------------|--0----0----0----0--------|
--3-----2--3-------2--3--|--------------------------|
-----3----------3--------|--------------------------|


                                                    
------------------------|--------------------------|
------------------------|--0--0--0--0--0--0--2--4--|
-----------3----2--3----|--------------------------|
--0--2--3---------------|--------------------------|


                                                     
--0---------------------|---------------------------|
-----0------------------|--0--0--0--0--0--0-0-------|
--------2--3----2--3----|---------------------------|
------------------------|---------------------2--2--|


                                                    
------------------------|--------------------------|
------------------------|--0--0--0--0--0--0--2--4--|
-----------3----2--3----|--------------------------|
--0--2--3---------------|--------------------------|


                                                   
--0---------------------|-------------------------|
-----0------------------|--0--0--0--0--0--0--0----|
--------2--3----2--3----|-------------------------|
------------------------|-------------------------|


                                                      
--------------------------|--------------------------|
-----2-----0-----------0--|-----2-----0-----------0--|
--------2-----------2-----|--------2-----------2-----|
--0-----------0--0--------|--0-----------0--0--------|


                                                      
--------------------------|--------------------------|
-----2-----0-----------0--|-----2-----0-----------0--|
--------2-----------2-----|--------2-----------2-----|
--0-----------0--0--------|--0-----------0--0--------|


                                                      
--------------------------|--------------------------|
-----2-----0-----------0--|-----2-----0-----------0--|
--------2-----------2-----|--------2-----------2-----|
--0-----------0--0--------|--0-----------0--0--------|


                                                      
--------------------------|--------------------------|
-----2-----0-----------0--|-----2-----0-----------0--|
--------2-----------2-----|--------2-----------2-----|
--0-----------0--0--------|--0-----------0--0--------|


                                                      
--------------------------|--------------0-----0-----|
-----2-----0-----------0--|-----2-----0-----4-----4--|
--------2-----------2-----|--------2-----------------|
--0-----------0--0--------|--0-----------------------|


                                                      
--------------------------|--------------------------|
-----2-----0-----------0--|-----2-----0-----------0--|
--------2-----------2-----|--------2-----------2-----|
--0-----------0--0--------|--0-----------0--0--------|


                                                      
--------------------------|--------------------------|
-----2-----0-----------0--|-----2-----0-----------0--|
--------2-----------2-----|--------2-----------2-----|
--0-----------0--0--------|--0-----------0--0--------|


                                                      
--------------------------|--------------------------|
-----2-----0-----------0--|-----2-----0-----------0--|
--------2-----------2-----|--------2-----------2-----|
--0-----------0--0--------|--0-----------0--0--------|


                                                      
--------------------------|--------------------------|
-----2-----0-----------0--|-----2-----0--------------|
--------2-----------2-----|--------2--------------2--|
--0-----------0--0--------|--0-----------0--2--3-----|


                                                     
--------------------------|-------------------------|
-----------0--0--0--0--0--|--0--0--0--0--2--2--2----|
--3--3--3-----------------|-------------------------|
--------------------------|-------------------------|


                                                     
--------------------------|--------0----------------|
-----------0--0--0--0--0--|--0--2-----4--2--2--2----|
--3--3--3-----------------|-------------------------|
--------------------------|-------------------------|


                                                     
--------------------------|-------------------------|
-----------0--0--0--0--0--|--0--0--0--0--2--2--0----|
--3--3--3-----------------|-------------------------|
--------------------------|-------------------------|


                                                     
-------------------------|--------------------------|
-------------------------|--0----0----0----0--------|
--3-----2--3-------2--3--|--------------------------|
-----3----------3--------|--------------------------|


                                                    
------------------------|--------------------------|
------------------------|--0--0--0--0--0--0--2--4--|
-----------3----2--3----|--------------------------|
--0--2--3---------------|--------------------------|


                                                     
--0---------------------|---------------------------|
-----0------------------|--0--0--0--0--0--0-0-------|
--------2--3----2--3----|---------------------------|
------------------------|---------------------2--2--|


                                                    
------------------------|--------------------------|
------------------------|--0--0--0--0--0--0--2--4--|
-----------3----2--3----|--------------------------|
--0--2--3---------------|--------------------------|


                                                    
--0---------------------|--------------------------|
-----0------------------|--0--0--0--0--0--0--------|
--------2--3----2--3----|--------------------0--2--|
------------------------|--------------------------|


                                                                  
---------0------4----|------------------|------------------------|
---------------------|------------------|------------------------|
--3------------------|------------------|-----------3----2--3----|
---------------------|------------------|--0--2--3---------------|


                                                    
--------------------------|--0---------------------|
--0--0--0--0--2--2--4--4--|-----0----------0--2----|
--------------------------|--------2--3------------|
--------------------------|------------------------|


                                                    
--------------------------|------------------------|
--0--0--0--0--0-----------|------------------------|
--------------------------|-----------3----2--3----|
-----------------0--3--2--|--0--2--3---------------|


                                                  
--------------------------|--0-------------------|
--0--0--0--0--0--0--2--4--|-----0----------------|
--------------------------|--------2--3----------|
--------------------------|----------------------|


                                                      
--------------------------|--------------------------|
--------------------------|--------------------------|
--------------------------|--------------------0--2--|
--0--0--0--0--0--0--0--0--|--0--0--0--0--0--0--------|


                                                     
--------------------------|-------------------------|
-----------0--0--0--0--0--|--0--0--0--0--2--2--0----|
--3--3--3-----------------|-------------------------|
--------------------------|-------------------------|


                                                                      
--------------------|----------------------|-------------------------|
--------------------|--0----0----0----0----|-----------1----0--1--2--|
--3------3----------|----------------------|-----0--1----------------|
--------------------|----------------------|--3----------------------|


                                                     
--------------------0--2--|--3----------------------|
--3--3--3--3--3--3--------|-----3--0--1----0--1--2--|
--------------------------|-------------------------|
--------------------------|-------------------------|


                                                      
---------------------------|----------------------0--|
--3--3--3--3--3------------|-----------1----0--1-----|
-----------------0-0-1--0--|-----0--1----------------|
---------------------------|--3----------------------|


                                                     
-----------0--0--0--2-----|--3----------------------|
--3--3--3--------------3--|-----3--0--1----0--1--1--|
--------------------------|-------------------------|
--------------------------|-------------------------|


                                                         
------------------------------|-------------------------|
--3--3---3--3---3--3---3------|-----------1----0--1--2--|
-------3------3------3----1-0-|-----0--1----------------|
------------------------------|--3----------------------|


                                                     
--------------------0--2--|--3----------------------|
--3--3--3--3--3--3--------|-----3--0--1----0--1--2--|
--------------------------|-------------------------|
--------------------------|-------------------------|


                                                      
---------------------------|----------------------0--|
--3--3--3--3--3------------|-----------1----0--1-----|
-----------------0-0-1--0--|-----0--1----------------|
---------------------------|--3----------------------|


                                                     
-----------0--0--0--2-----|--3----------------------|
--3--3--3--------------3--|-----3--0--1----0--1--1--|
--------------------------|-------------------------|
--------------------------|-------------------------|


                                                         
------------------------------|-------------------------|
--3--3---3--3---3--3---3------|-----------1----0--1--2--|
-------3------3------3----1-0-|-----0--1----------------|
------------------------------|--3----------------------|


                                                     
--------------------0--2--|--3----------------------|
--3--3--3--3--3--3--------|-----3--0--1----0--1--2--|
--------------------------|-------------------------|
--------------------------|-------------------------|


                                                      
---------------------------|----------------------0--|
--3--3--3--3--3------------|-----------1----0--1-----|
-----------------0-0-1--0--|-----0--1----------------|
---------------------------|--3----------------------|


                                                     
-----------0--0--0--2-----|--3----------------------|
--3--3--3--------------3--|-----3--0--1----0--1--1--|
--------------------------|-------------------------|
--------------------------|-------------------------|


                                                         
------------------------------|-------------------------|
--3--3---3--3---3--3---3------|-----------1----0--1--2--|
-------3------3------3----1-0-|-----0--1----------------|
------------------------------|--3----------------------|


                                                     
--------------------0--2--|--3----------------------|
--3--3--3--3--3--3--------|-----3--0--1----0--1--2--|
--------------------------|-------------------------|
--------------------------|-------------------------|


                                                      
---------------------------|----------------------0--|
--3--3--3--3--3------------|-----------1----0--1-----|
-----------------0-0-1--0--|-----0--1----------------|
---------------------------|--3----------------------|


                                                     
-----------0--0--0--2-----|--3----------------------|
--3--3--3--------------3--|-----3--0--1----0--1--1--|
--------------------------|-------------------------|
--------------------------|-------------------------|


                                                   
------------------------------|------------------||
--3--3---3--3---3--3---3------|------------------||
-------3------3------3----1-0-|------------------||
------------------------------|------------------||

Comentários (0)

Composição: Jon Bon Jovi / Richie Sambora / Desmond Child
Esse não é o compositor? Avise-nos.
Contribuição: Ray Jackson
  1. Tudo Que Você Quiser - Luan Santana Manteve-se 6.122 exibições
  2. Lepo Lepo - Psirico Manteve-se 4.394 exibições
  3. Mozão - Lucas Lucco Manteve-se 4.201 exibições
  4. Logo Eu - Jorge e Mateus Manteve-se 4.020 exibições
  5. Pra Você - Onze:20 Manteve-se 4.019 exibições
  6. Gaveta - Fernando e Sorocaba Manteve-se 3.769 exibições
  7. Só Os Loucos Sabem - Charlie Brown Jr. Manteve-se 3.071 exibições
  8. Tempo Perdido - Legião Urbana Manteve-se 2.714 exibições
  9. Fui Fiel - Gusttavo Lima Manteve-se 2.713 exibições
  10. Domingo de Manha - Marcos e Belutti Manteve-se 2.289 exibições
  1. Jorge e Mateus- Manteve-se 23.884 exibições
  2. Legião Urbana- Manteve-se 21.696 exibições
  3. Luan Santana- Manteve-se 17.411 exibições
  4. Charlie Brown Jr.- Manteve-se 17.352 exibições
  5. Fernandinho- Manteve-se 14.841 exibições
  6. Católicas- Manteve-se 11.201 exibições
  7. Thalles Roberto- Manteve-se 11.085 exibições
  8. Gusttavo Lima- Manteve-se 11.009 exibições
  9. Victor e Leo- Manteve-se 10.721 exibições
  10. Bruno e Marrone- Manteve-se 10.310 exibições

Cifras e tabs

Fórum Cifra Club

Aprenda

Cifra Club News

Mais Serviços Cifra Club ID

Studio Sol

©1996 - 2014 Cifra Club · o primeiro, maior e mais acessado do Brasil · 329 mil músicas · 6.0 milhões pessoas cadastradas

publicidade
fechar