Last Kiss

Boyce Avenue

 Boyce Avenue
Tom: G
		
Intro:

    G                            Em                          C9
E|----------------------------|----------------------------|----------------|
B|------3---------------------|------3---------------------|------3---------|
G|----0-----0----------0-----0|----0-----0----------0-----0|----0-----0-----|
D|--0-----0---(3x)---0-----0--|--2-----2---(3x)---2-----2--|--2-----2---(4x)|
A|----------------------------|-----------------------0----|3---------------|
E|3----------------3-----2----|0----------------0----------|----------------|


Verso 1:

   G                Em              C9              Dsus
E|-------------------------------------------------------------------|
B|------3----------------3----------------3----------------3---------|
G|----0-----0----------0-----0----------0-----0----------2-----2-----|
D|--0-----0---(2x)---2-----2---(2x)---2-----2---(2x)---0-----0---(2x)|
A|----------------------------------3----------------0---------------|
E|3----------------0-------------------------------------------------|


I still remember the look on your face
lit through the darkness at 1:58
The words that you whispered for just us to know
You told me you loved me so why did you go


    G                           Em                           C9
E|----------------------------|----------------------------|----------------|
B|------3---------------------|------3---------------------|------3---------|
G|----0-----0----------0-----0|----0-----0----------0-----0|----0-----0-----|
D|--0-----0---(3x)---0-----0--|--2-----2---(3x)---2-----2--|--2-----2---(4x)|
A|----------------------------|-----------------------0----|3---------------|
E|3----------------3-----2----|0----------------0----------|----------------|

away, go away

Verso 2:

     G               Em               C9              Dsus
E|-------------------------------------------------------------------|
B|------3----------------3----------------3----------------3---------|
G|----0-----0----------0-----0----------0-----0----------2-----2-----|
D|--0-----0---(2x)---2-----2---(2x)---2-----2---(2x)---0-----0---(2x)|
A|----------------------------------3----------------0---------------|
E|3----------------0-------------------------------------------------|


I do recall now the smell of the rain
Fresh on the pavement, you ran off the plane
That July 9th the beat of my heart
It jumps through my shirt, hope you still feel my arms

Pré-Refrão:

    C9               G                C9             Dsus
E|----------------------------------------------------------------|
B|------3----------------3----------------3----------------3------|
G|----0-----0----------0-----0----------0-----0----------2-----2--|
D|--2-----2---(2x)---0-----0---(2x)---2-----2---(2x)---0-----0---0|
A|3---------------------------------3----------------0------------|
E|-----------------3----------------------------------------------|


now I'll go sit on the floor wearing your clothes
All that I know is I don't know
How to be something you miss

Refrão:

    G                           Em
E|----------------------------|----------------------------|
B|------3---------------------|------3---------------------|
G|----0-----0----------0-----0|----0-----0----------0-----0|
D|--0-----0---(3x)---0-----0--|--2-----2---(3x)---2-----2--|
A|----------------------------|-----------------------0----|
E|3----------------3-----2----|0----------------0----------|



   C9              Dsus
E|----------------|------0------|
B|------3---------|----3---3---3|
G|----0-----0-----|--2-------2--|
D|--2-----2---(2x)|0------------|
A|3---------------|-------------|
E|----------------|-------------|


Never thought we'd have a last kiss
Never imagined we'd end like this
Your name, forever the name on my lips

Verso 3:

    G               Em               C9              Dsus
E|-------------------------------------------------------------------|
B|------3----------------3----------------3----------------3---------|
G|----0-----0----------0-----0----------0-----0----------2-----2-----| (2x)
D|--0-----0---(2x)---2-----2---(2x)---2-----2---(2x)---0-----0---(2x)|
A|----------------------------------3----------------0---------------|
E|3----------------0-------------------------------------------------|


I do remember the swing of your step
The life of the party, you're showing off again
And I roll my eyes and then you pulled me in
I'm not much for dancing but for you i did

Verso 4:
Because you loved my handshake, meeting your father
you love how I walk with my  hands in my pockets
How I`d kiss you when you were in the middle of saying something
I pray that you still miss those rude interruptions

Pré Refrão:

   C9               G                C9              Dsus
E|----------------------------------------------------------------|
B|------3----------------3----------------3----------------3------|
G|----0-----0----------0-----0----------0-----0----------2-----2--|
D|--2-----2---(2x)---0-----0---(2x)---2-----2---(2x)---0-----0---0|
A|3---------------------------------3----------------0------------|
E|-----------------3----------------------------------------------|


now I'll go, sit on the floor wearing your clothes
All that I know is I don't know
How to be something you miss

Refrão:

    G                           Em
E|----------------------------|----------------------------|
B|------3---------------------|------3---------------------|
G|----0-----0----------0-----0|----0-----0----------0-----0|
D|--0-----0---(3x)---0-----0--|--2-----2---(3x)---2-----2--|
A|----------------------------|-----------------------0----|
E|3----------------3-----2----|0----------------0----------|



   C9               Dsus
E|----------------|------0------|
B|------3---------|----3---3---3|
G|----0-----0-----|--2-------2--|
D|--2-----2---(2x)|0------------|
A|3---------------|-------------|
E|----------------|-------------|


Never thought we'd have a last kiss
Never imagined we'd end like this
Your name, forever the name on my lips

Ponte:

   C9               Dsus
E|----------------|----------------|
B|------3---------|------3---------|
G|----0-----0-----|----2-----2-----|
D|--2-----2---(2x)|--0-----0---(2x)|
A|3---------------|0---------------|
E|----------------|----------------|



    G           Em           C9         Dsus
E|----------------------------------------------------|
B|------3-----------3-----------3-----------3---------|
G|----0-----0-----0-----0-----0-----0-----2-----2-----| (3x)
D|--0-----0-----2-----2-----2-----2-----0-----0-------|
A|------------------------3-----------0---------------|
E|3-----------0---------------------------------------|



   C9             Dsus
E|------------------------------|
B|------3----------------3------|
G|----0-----0----------2-----2--|
D|--2-----2---(2x)---0-----0---0|
A|3----------------0------------|
E|------------------------------|


So I'll watch your life in pictures like I used to watch you sleep
And I'll feel you forget me like I use to feel you breathe
And I'll keep up with our old friends just to ask them how you are
Hope it's nice where you are


   C9               Em               C9              Dsus
E|---------------------------------------------------------0------|
B|------3----------------3----------------3--------------3---3---3|
G|----0-----0----------0-----0----------0-----0--------2-------2--|
D|--2-----2---(2x)---0-----0---(2x)---2-----2---(2x)-0------------|
A|3----------------2----------------3-----------------------------|
E|----------------------------------------------------------------|


And I hope the sun shines and it's a beautiful day
And something reminds you, you wish you had stayed
I never planned on making you cry
but not letting go would be living a lie

Pré Refrão:

    C9               G               C9              Dsus
E|----------------------------------------------------------------|
B|------3----------------3----------------3----------------3------|
G|----0-----0----------0-----0----------0-----0----------2-----2--|
D|--2-----2---(2x)---0-----0---(2x)---2-----2---(2x)---0-----0---0|
A|3---------------------------------3----------------0------------|
E|-----------------3----------------------------------------------|


So, I'll go, sit on the floor wearing your clothes
All that I know is I don't know
How to be something you miss

Refrão:
 
    G                           Em
E|----------------------------|----------------------------|
B|------3---------------------|------3---------------------|
G|----0-----0----------0-----0|----0-----0----------0-----0|
D|--0-----0---(3x)---0-----0--|--2-----2---(3x)---2-----2--|
A|----------------------------|-----------------------0----|
E|3----------------3-----2----|0----------------0----------|



         C9             Dsus
E|----------------|------0------|
B|------3---------|----3---3---3|
G|----0-----0-----|--2-------2--|
D|--2-----2---(2x)|0------------|
A|3---------------|-------------|
E|----------------|-------------|


I never thought we'd have a last kiss
Never imagined we'd end like this
Your name, forever the name on my lips


  G                            Em
E|----------------------------|----------------------------|
B|------3---------------------|------3---------------------|
G|----0-----0----------0-----0|----0-----0----------0-----0|
D|--0-----0---(3x)---0-----0--|--2-----2---(3x)---2-----2--|
A|----------------------------|-----------------------0----|
E|3----------------3-----2----|0----------------0----------|



  C9               G
E|--------------------|
B|------3-------------|
G|----0-----0------0--|
D|--2-----2---(4x)-0--|
A|3----------------2--|
E|-----------------3--|


Just like our last kiss, forever the name on my lips
Forever the name on my lips, just like our last
6.743 exibições

Comentários 1

  • pathyk pathyk: Postado em 07/03/2012 16:34

    Capotraste na 4 casa

Exibir acordes »
publicidade
fechar