Perfect

Boyce Avenue

 Boyce Avenue Compositor: Alejandro / Daniel / Fabian Manzano
Tom: 
		
Afinação: C# G# C# G# C# C#  (Open C#)

Verso 1:

C#|--4---------2---------4---------7--------|
C#|----0---------0---------0---------0------|
G#|------0---------0---------0---------0----|   (2x)
C#|--------0---------2---------4---------0--|
G#|--5---------0---------2------------------|
C#|--------------------------------5--------|


Pré-Refrão:

C#|--------------------------------------------------------------|
C#|--------0--------------0--------------0--------------0--------|
G#|------0---0---0------0---0---0------0---0---0------0---0---0--|
C#|----4-------4------2-------2------4-------4------0-------0----|
G#|--5--------------0--------------2-----------------------------|
C#|-----------------------------------------------5--------------|



C#|-----------------------------------------------7--|
C#|--------0--------------0--------------0--------0--|
G#|------0---0---0------0---0---0------0---0---0--0--|
C#|----4-------4------2-------2------4-------4----0--|
G#|--5--------------0--------------2--------------x--|
C#|-----------------------------------------------5--|


Refrão:                  

C#|--0---0---0---0--|      |-(12)-|
C#|--0---0---0---0--|      |-(12)-|
G#|--0---0---0---0--| (2x) |-(12)-|
C#|--4---2---4---5--|      |-(12)-|
G#|--5---0---2---x--|      |------|
C#|--x---x---x---5--|      |------|


Verso 2:

C#|--------------------------------------------------------------|
C#|--------0--------------0--------------0--------------0--------|
G#|------0---0---0------0---0---0------0---0---0------0---0---0--|   (2x)
C#|----4-------4------2-------2------4-------4------0-------0----|
G#|--5--------------0--------------2-----------------------------|
C#|-----------------------------------------------5--------------|


Pré-Refrão 2:

C#|------0------0------0------0------0------0------0------0--|
C#|------0------0------0------0------0------0------0------0--|
G#|------0------0------0------0------0------0------0------0--|
C#|----4------4------2------2------4------4------5------5----|
G#|--5------5------0------0------2------2--------------------|
C#|--------------------------------------------5------5------|



C#|------0------0------0------0------0------0---7---|
C#|------0------0------0------0------0------0---0---|
G#|------0------0------0------0------0------0---0---|
C#|----4------4------2------2------4------4-----0---|
G#|--5------5------0------0------2------2-------x---|
C#|---------------------------------------------5---|


(Refrão)

Ponte:
              You are perfect... You are perfect...

C#|--0--0--0--0--0-------------------------0--------------|
C#|--0--0--0--0--0-------------------------0--------------|
G#|--0--0--0--0--0-------------------------0--------------|   (2x)
C#|--4--7--7--0--4-------------------------2--------------|
G#|--2--4--5--x--5-------------------------x--------------|
C#|--x--x--x--5--x-------------------------2--------------|


            You are perfect... You are perfect... to me...

C#|--0-----0-----0------------------0---------------------|
C#|--0-----0-----0------------------0---------------------|
G#|--0-----0-----0------------------0---------------------|   (2x)
C#|--4-----2-----4------------------0---------------------|
G#|--5-----0-----2------------------x---------------------|
C#|--x-----x-----x------------------5---------------------|


Final:	              

C#|--0---0---0---0--|      |-(12)-|
C#|--0---0---0---0--|      |-(12)-|
G#|--0---0---0---0--| (3x) |-(12)-|
C#|--0---2---4---5--|      |-(12)-|
G#|--0---0---2---x--|      |------|
C#|--0---x---x---5--|      |------|
16.476 exibições

Comentários 0

Exibir acordes »
publicidade
fechar