Pocketful Of Sunshine (Natasha Bedingfield)

Boyce Avenue

 Boyce Avenue
Tom: C
		
Tuning: D  G  C  F  A  D

Verse:

---------0---------------0---------------0---------------0-------|
-----0-------0-------3-------3-------1-------1-------1-------1---|
---------------0---2---2---2---2---------------0---------------0-|
---2---2---2-----0-----------------2---2---2-------2---2---2-----|
---------------------------------3---------------0---------------|
-0---------------------------------------------------------------|


Chorus:

-0----3----2----0-|
-0----3----3----1-|
-0----0----2----0-|
-2----0----0----2-|
-2----2----0----3-|
-0----3-----------|


Bridge:

-------------------------------------------------------------|
---------------------------------8---10---8--------7---8---7-|
---------------7-7----4-4------0---0----0---0----7---7---7---|
-9-9----7-7----5-5----2-2----------------------0-------------|
-7-7----5-5----3-3----0-0----7-------------------------------|
-------------------------------------------------------------|



---------0------------------0-------2-|
-----3-------3----------1---------1---|
---0---0---0--------2-----2-----2-----|
------------------2---2-------2-------|
-3--------------0---------------------|
--------------------------------------|


Outro:

-0----2----0----0-|
-0----3----1----1-|
-0----2----0----2-|
-2----0----2----2-|
-2----0----3----0-|
-0----------------|
4.126 exibições

Comentários 0

Consegui tocarAinda não conseguiram tocar essa música. Seja o primeiro!
    Não consegui tocar
    Exibir acordes »
    publicidade
    fechar