What Makes You Beautiful

Boyce Avenue

 Boyce Avenue Compositor: Aline Emanuelle Gonçalves
Tom: 
Capotraste na 5ª casa		
Intro:

E|--------------------------------------|
B|--------------------------------------|
G|-------0--------0------0--------2-----|
D|-----0--------0------2--------0-------|
A|------------3---------------0---------|
E|---3---------------0------------------|


Verso 2x:

E|--------------------------------------|
B|--------------------------------------|
G|-------0--------0------0--------2-----| 
D|-----0--------0------2--------0-------|
A|------------3---------------0---------|
E|---3---------------0------------------|


Pré-Refrão:

E|-------------------------------------------------------|
B|-------------------------------------------------------|
G|-------0--------0------0------------2------2p0---0-----|
D|-----0--------0------2------------0------------0-------|
A|------------3-------------------0----------------------|
E|---3---------------0-----------------------------------|


Refrão:

E|--------------------------------------------|
B|--------------------------------------------|
G|--------2h4------0-------0------2-0---------| (4x)
D|------0--------0-------2-------0------------|
A|-------------3-------------------0----------|
E|---3-----------------0----------------------|


                     That's what makes you beautiful...

E|--------------------------------------------|
B|--------------------------------------------|
G|--------2h4------0--------------------------|
D|------0--------0----------------------------|
A|-------------3------------------------------|
E|---3----------------------------------------|



E|--------------------------------------------------------|
B|-------1h3----------------------------------------------|
G|----------------0-------0h2----2-0----------------------|
D|-----0--------0-------2-------0-------------------------|
A|------------3-------------------0-----------------------|
E|---3----------------0-----------------------------------|



E|--------------------------------------------------------|
B|-------1h3----------------------------------------------|
G|----------------0-------0h2-----------------------------|
D|-----0--------0-------2-------0-------------------------|
A|------------3-----------------0-------------------------|
E|---3----------------0-----------------------------------|


(Verso)

(Pré-Refrão)

Refrão 2 4x:

E|--------------------------------------------|
B|--------------------------------------------|
G|--------2h4------0-------0------2-0---------| 
D|------0--------0-------2-------0------------|
A|-------------3-------------------0----------|
E|---3-----------------0----------------------|


                     That's what makes you beautiful...

E|--------------------------------------------|
B|--------------------------------------------|
G|--------2h4------0--------------------------|
D|------0--------0----------------------------|
A|-------------3------------------------------|
E|---3----------------------------------------|


Solo 2x:

E|----------------------------------------------------|
B|---3p5---3---1h0------------------------------------|
G|-------0---0------0-----2-4---3-----0-2---2-2p0-----|
D|-------------------0---------------------0-----0----|
A|--------------------3--------0-0--------------------|
E|----------------------------3---3-------2-----------|


Refrão 2x:

E|-----------------|
B|-----------------|
G|----0--0--0--2---| 
D|----0--0--2--0---|
A|-------3-----0---|
E|----3-----0------|



E|--------------------------------------------|
B|--------------------------------------------|
G|--------2h4------0-------0------2-0---------| (8x)
D|------0--------0-------2-------0------------|
A|-------------3-------------------0----------|
E|---3-----------------0----------------------|



E|--------------------------------------------------------|
B|-------1h3----------------------------------------------|
G|----------------0-------0h2----2-0----------------------| (2x)
D|-----0--------0-------2-------0-------------------------|
A|------------3-------------------0-----------------------|
E|---3----------------0-----------------------------------|



E|--------------------------------------------|
B|--------------------------------------------|
G|--------2h4------0-------0------2-0---------| (3x)
D|------0--------0-------2-------0------------|
A|-------------3-------------------0----------|
E|---3-----------------0----------------------|



E|--------------------------------------------|
B|--------------------------------------------|
G|--------2h4------0--------------------------|
D|------0--------0----------------------------|
A|-------------3------------------------------|
E|---3----------------------------------------|
21.009 exibições

Comentários 1

  • alysonsena alysonsena: Postado em 14/08/2012 12:14

    coloca a vídeo aula dessa musica for pavor pessoal valeu

Composição: One Direction
Esse não é o compositor? Avise-nos.
Contribuição: aline_96
Exibir acordes »
publicidade
fechar