Cama Vazia

Brilha Som

 Brilha Som
Tom: G
		
(intro) C D (2x)
        G C D  (2x)


E|--------2-2/3-2-2------------------------------2-2/3-2-2-----------2-2/3-2-2----|
B|--333-5-----------5-3/5-3-5-3-3/5-3------333-5-----------5-3/5-3-5--------------|
G|------------------------------------2-------------------------------------------|
D|--------------------------------------------------------------------------------|
A|--------------------------------------------------------------------------------|
E|--------------------------------------------------------------------------------|


G                       D                              C                   D
Às vezes tenho medo de tentar te esquecer bate uma vontade muito forte de te ver
             G                     D                           C                         D
e viver de novo tudo aquilo que um dia a gente viveu eu ainda sonho com esse amor que se perdeu.
                 C9                          D
Mas esse orgulho bobo e mais forte e não vou te procurar,
               C9                    D
preciso te esquecer e desse sonho acordar.

           G           C        D
Volto pra casa e madrugada e você não está
         G         C        D
a cama vazia e suas coisas no mesmo lugar,
                   G                C                D
o vento sopra meu rosto e traz seu cheiro pra me enlouquecer
          G            C            D
preciso tirar você de mim e te equecer.

(solo 4x) ( G C D )


E|--------2-2/3-2-2------------------------------2-2/3-2-2-----------2-2/3-2-2----|
B|--333-5-----------5-3/5-3-5-3-3/5-3------333-5-----------5-3/5-3-5--------------| (2x)
G|------------------------------------2-------------------------------------------|
D|--------------------------------------------------------------------------------|
A|--------------------------------------------------------------------------------|
E|--------------------------------------------------------------------------------|


G                       D                              C                   D
Às vezes tenho medo de tentar te esquecer bate uma vontade muito forte de te ver
             G                     D                           C                         D
e viver de novo tudo aquilo que um dia a gente viveu eu ainda sonho com esse amor que se perdeu.
                 C9                          D
Mas esse orgulho bobo e mais forte e não vou te procurar,
               C9                    D
preciso te esquecer e desse sonho acordar.

           G           C        D
Volto pra casa e madrugada e você não está
         G         C        D
a cama vazia e suas coisas no mesmo lugar,
                   G                C                D
o vento sopra meu rosto e traz seu cheiro pra me enlouquecer
          G            C            D
preciso tirar você de mim e te esquecer.
41.634 exibições

Comentários 1

  • Estiven Estiven: Postado em 13/02/2014 14:01

    boa tarde como é o ritmo desse estilo de musica?

Composição: Mauricio Nunes/ Valmir Menezes
Esse não é o compositor? Avise-nos.
Contribuição: Adir /adyrsalto Correções: marlon__nh e mais 2 »
Exibir acordes »
publicidade
fechar