A Tyranny of Souls

Bruce Dickinson

 Bruce Dickinson Compositor: Bruce Dickinson
Tom: E
		
Afinação: 1 tom abaixo.


e|-----------------------------------------------------------------------|
B|-----------------------------------------------------------------------|
G|-------9--------------9--------------9--------------9------------------|	
D|-----9---9--8~------9---9--8~------9---9--8~------9---9--8~---8--10----|	
A|---7--------------7--------------7--------------7----------------------|
E|-----------------------------------------------------------------------|



e|------------------------------------------------------------------------------------------------------------|
B|------------------------------------------------------------------------------------------------------------|
G|-------7--------------7--------------7---------------7----------------------9-------------9-----------------|
D|-----7---7--8~------7---7--8~------7---7--8~-------7---7--8~---8--10------9---9--8~-----9---9--8~--8--10----|
A|---5--------------5--------------5---------------5----------------------7-------------7---------------------|
E|------------------------------------------------------------------------------------------------------------|



e|------------------------------------------|
B|------------------------------------------|
G|---9-9-9-9-9-9-9-9-9-9-9-9-9-9-9-9-9\-----|
D|---9-9-9-9-9-9-9-9-9-9-9-9-9-9-9-9-9\-----|
A|---7-7-7-7-7-7-7-7-7-7-7-7-7-7-7-7-7\-----|
E|------------------------------------------|



e|--------------------------------------------------------------------------------|--------Final-Time----------|
B|--------------------------------------------------------------------------------|----------------------------|
G|---9--99-----9-\-8-/-9--99---12--12--1212---5--55---5-\-4-/-5--55---7--7--77----|----------------------------|
D|---9--99-----9-\-8-/-9--99---12--12--1212---5--55---5-\-4-/-5--55---7--7--77----|-----------3----------3-----|
A|---7--77-----7-\-6-/-7--77---10--10--1010---3--33---3-\-2-/-3--33---5--5--55----|-----------3----------3-----|
E|--------------------------------------------------------------------------------|-----0--0--1----0--0--1-----|



e|-------------------------------------------------------------------------|
B|-------------------------------------------------------------------------|
G|-------------------------------------------------------------------------|
D|---------------3--------------5--6-----------------3--------------6--5---|
A|---------------3--------------5--6-----------------3--------------6--5---|
E|---0--0--0--0--1--0--0--0--0--3--4-----0--0--0--0--1--0--0--0--0--4--3---|



e|---------------------------------------------------------------|
B|---------------------------------------------------------------|
G|---------------------------------------------------------------|
D|---4--4--4--7--4--4--7--7--8----4--4--4--7--4--4--8--8---------|
A|---4--4--4--7--4--4--7--7--8----4--4--4--7--4--4--8--8---------|
E|---2--2--2--5--2--2--5--5--6----2--2--2--5--2--2--6--6---------|


Base Solo

e|---------------------------------------------------------------|
B|---------------------------------------------------------------|
G|---------3----3-/-5--------------------------------------------|
D|---2-----3----3-/-5--------------------------------------------|
A|---2-----1----1-/-3--------------------------------------------|
E|---0-----------------------------------------------------------|



| /  slide up
| \  slide down
| ~  vibrato

Comentários 0

Composição: Bruce Dickinson / He Is Legend
Esse não é o compositor? Avise-nos.
Contribuição: slipknot_fk
Consegui tocarAinda não conseguiram tocar essa música. Seja o primeiro!
    Não consegui tocar
    Exibir acordes »
    publicidade
    fechar