Book of Thel

Bruce Dickinson

 Bruce Dickinson
Tom: D
		
Intro-

G||---10-------10--------10-----12--------10--------12-----14-------14-------
D||-o----12-------12--------12-----12--------12--------12-----12-------12----
A||-o-------12-------12---------------12--------12---------------12-------12-
E||--------------------------------------------------------------------------



G  --14-----13--------13-------13--------||
D  -----12-----12--------12-------12---o-||  Repeat a couple of times
A  ---------------12--------12---------o-||  under guitar solo and stuff...
E  --------------------------------------||



e|------------------+-------|
B|------------------|-------|
G|--2--2-2-5--7--8--|--2-2--|
D|--0--0-0-3--5--6--|--0-0--|
A|------------------|-------|
E|------------------+-------|



                                |1.       |2.
e|------------------------------+---------+---------|
B|------------------------------|---------|---------|
G|--2--2-2-5--7--8--2--5--2--7--|---------|--8---7--|
D|--0--0-0-3--5--6--0--3--0--5--|--5---7--|--6---5--|
A|------------------------------|--3---5--|---------|
E|------------------------------+---------+---------|

The mark is on you now, the furnace sealed inside your head...


e|-------------------------------------+------------|
B|-------------------------------------|------------|
G|--9--9-9--9--9-9--10-1010-12--12-12--|--9----7-5--|
D|--7--7-7--7--7-7--8--8-8--10--10-10--|--7----5-3--|
A|-------------------------------------|------------|
E|-------------------------------------+------------|

Stand inside the temple, as the book thel is opening...


e|-------------------------------------------------------|
B|-------------------------------------------------------|
G|--2-2-2-2-2--5-5-5-5-5-5-10101010101010-7---5---4---2--|
D|--0-0-0-0-0--3-3-3-3-3-3/8-8-8-8-8-8-8--5---3---2---0--|
A|-------------------------------------------------------|
E|-------------------------------------------------------|

Come the dawning of the dead...


e|-----------------------------|
B|-----------------------------|
G|-----------------------------|
D|-----------------------------|
A|--0--0-0-1p0-0-1p0-0-3--3-0--|
E|-----------------------------|

(solo riff)

Comentários 0

Composição: Bruce Dickinson / He Is Legend
Esse não é o compositor? Avise-nos.
Contribuição: slipknot_fk
Consegui tocarAinda não conseguiram tocar essa música. Seja o primeiro!
    Não consegui tocar
    Exibir acordes »
    publicidade
    fechar