Choram As Rosas

Bruno e Marrone

 Bruno e Marrone
Tom: G
		
(intro) G    D    Em    C9    G    D    Em    C9   G   C


E|-------------------------------------------------------------------|
B|-------------------------------------------------------------------|
G|-------------------------------------------------------------------|
D|-------------------------------------------------------------------|
A|------2-5-----------0-3--3-3-3-2-0------2-5-----------0-3-2--------|
E|-3--5------2-2-0--3----------------3--5------2-2-0--3-------3------|



(1º parte)
G            D
   Choram as rosas
           C9                          G
   Seu perfume agora se transforma em lágrimas
                          D     C9                      E|--------------------------|
    E eu me sinto tão perdido,                          B|--------------------------|
               G                                        G|--------------------------|
    Choram as rosas                                     D|--------------------------| -> DURANTE  A 1º PARTE

               D                                        A|---2-3-5------------------|
   Chora minh'alma                                      E|-5------------------------|

           C9                   G
   Como um pássaro de asas machucadas
                           D     C9
   Nos meus sonhos, te procuro
              G
   Chora minh'alma

(pré-refrão)
C9                 Em           D
   Lágrimas, que invadem meu coração
C9              Em       D
   Lágrimas, palavras da alma,
   C9           Em       D         C9
   Lágrimas, a pura linguagem do amor

(refrão)
G            D       Em7
   Choram as rosas
               C9           G
   Porque não quero estar aqui
               D     Em7
   Sem seu perfume
             C9       D    G
   Porque já sei que te perdi
                  Bm       C
   E entre outras coisas
                 G   D   C9   G   D   C9
   Eu choro por ti


E|----------------------------------------------------|
B|----------------------------------------------------|
G|----------------------------------------------------|
D|-6-6-6-6-6-7-7-7-7-7-8-8-8-8-8--8-7-5-4-------------|
A|--5-5-5-5-5-5-5-5-5-5-5-5-5-5-5---------5-----------|
E|----------------------------------------------------|


(2º parte)
G             D
   Falta seu cheiro
             C9                     G
   Que eu sentia quando você me abraçava
                           D      C9
   sem teu corpo, sem teu beijo
               G     D
   Tudo é sem graça

(pré-refrão)
C9                 Em           D
   Lágrimas, que invadem meu coração
C9              Em       D
   Lágrimas, palavras da alma,
   C9           Em       D         C9
   Lágrimas, a pura linguagem do amor

(refrão)
G            D       Em7
   Choram as rosas
               C9           G
   Porque não quero estar aqui
               D     Em7
   Sem seu perfume
             C9       D    G
   Porque já sei que te perdi
                  Bm       C
   E entre outras coisas
                 G
   Eu choro por ti

(solo base)  G    D    Em7    C9    G    D    Em7    C9    G


E|---------7---------------------------------------------------|
B|-8--8--10-10-7--------8--------------------------------------|
G|----------------9-12-9-9--9--7-------------------------------|
D|-------------------------------7-9-7--5----------------------|
A|------------------------------------10----5h7-5--------------|
E|----------------------------------------------7-5-3----------|



E|-7--7-8-10-10-7-5h7-5-5h7-5-------5----------------|
B|---------------------8----------7--5h7-5--7--------|
G|------------------------------6------------6-------|
D|---------------------------------------------------|
A|---------------------------------------------------|
E|---------------------------------------------------|


(refrão)
(G)            D       Em7
   Choram as rosas
               C9           G
   Porque não quero estar aqui
               D     Em7
   Sem seu perfume
             C9       D    G
   Porque já sei que te perdi
                  Bm       C
   E entre outras coisas
                 G
   Eu choro por ti

(final)
(G)  D  Em7  C9             G    D  Em7  C9   G   C      ( G )

               Eu choro por ti
Texto Colunas
Alterar tom ½ tom ½ tom
afinação acordes na letra esconder tabs mais »

Comentários 19

  • Marlon Marlon: Postado em 11/07/2014 01:53

    boa

  • Matheus Aparecido Matheus Aparecido: Postado em 08/05/2014 14:39

    Vídeo aula... cade você?

  • gustavo gustavo : Postado em 22/03/2014 22:20

    fica boa no tom de mi maior

  • torquatinhomatheus torquatinhomatheus: Postado em 19/01/2014 15:26

    Top top

  • wilton.nascimento.330 wilton.nascimento.330: Postado em 22/11/2013 15:14

    boa musica e facil tocar

  • arthurherrique arthurherrique: Postado em 07/09/2013 15:28

    Boa musica

  • vagnerhot vagnerhot: Postado em 26/10/2012 01:10

    video aula ai meu !!!!!!

  • adrianogg adrianogg: Postado em 31/08/2012 04:56

    Boa essa musica ,barbada de tocar ela...

  • p_lopes2012 p_lopes2012: Postado em 16/08/2012 15:22

    1° parte dedilhado ( polegar indicador medio indicador anular indicador medio indicador)
    e o resto faz no pop basico \/ \/ /\ /\ \/ /\ fl

  • alexandro1986 alexandro1986: Postado em 30/07/2012 19:37

    video aula ai pra nois...

Exibindo 10 de 19 comentários Mostrar mais ver todos »
Composição: Alfredo Matheus / Versão: Joquinha
Esse não é o compositor? Avise-nos.
Contribuição: Batata Correções: syn96 , baiano e mais 17 »
  1. Domingo de Manhã - Marcos e Belutti Manteve-se 103.166 exibições
  2. Logo Eu - Jorge e Mateus Manteve-se 46.829 exibições
  3. Não Vai Voltar - Onze:20 Manteve-se 44.151 exibições
  4. Maus Bocados - Cristiano Araújo Manteve-se 42.752 exibições
  5. Pra Você - Onze:20 Manteve-se 41.498 exibições
  6. Recaídas - Henrique e Juliano Manteve-se 41.175 exibições
  7. Só Os Loucos Sabem - Charlie Brown Jr. Manteve-se 31.682 exibições
  8. Aonde Quer Que Eu Vá - Os Paralamas do Sucesso Manteve-se 30.919 exibições
  9. Pais e Filhos - Legião Urbana Manteve-se 30.143 exibições
  10. Calma - Jorge e Mateus Manteve-se 30.011 exibições
  1. Jorge e Mateus- Manteve-se 300.809 exibições
  2. Legião Urbana- Manteve-se 220.750 exibições
  3. Charlie Brown Jr.- Manteve-se 152.057 exibições
  4. Marcos e Belutti- Manteve-se 127.052 exibições
  5. Fernandinho- Manteve-se 123.817 exibições
  6. Henrique e Juliano- Manteve-se 117.171 exibições
  7. Onze:20- Manteve-se 109.165 exibições
  8. Bruno e Marrone- Manteve-se 108.453 exibições
  9. Luan Santana- Manteve-se 95.192 exibições
  10. Thalles Roberto- Manteve-se 93.208 exibições
Exibir acordes »

Cifras e tabs

Fórum Cifra Club

Aprenda

Cifra Club News

Mais Serviços Cifra Club ID

Studio Sol

©1996 - 2014 Cifra Club · o primeiro, maior e mais acessado do Brasil · 335 mil músicas · 6.2 milhões pessoas cadastradas

publicidade
fechar