Duas Vezes Você

Bruno e Marrone

 Bruno e Marrone
Tom: E
		
Intro 2x: E  A  E  A

E                   B7           A
 Se a saudade não doesse assim
                            E
Nem tão grande fosse a solidão
                     B7         A
Se eu pudesse gostar só de mim
                     E
Te expulsava do meu coração
                      G#7
Se eu pudesse não ser como sou
                     C#m    A
E aprendesse como te odiar
                    E
Mas só sei sentir amor
                 F#m   B7
Você sabe que ganhou
                  E     E
Mas não vou me entregar .

B7
Todos os meus sonhos são teus
       C#m
Pois comigo você sempre está
       A                 B7
Mesmo quando eu penso em Deus
                 E               E
Eu só sei te lembrar, te lembrar
B
Se fosse preciso escolher
       C#m
entre amar ou poder te esquecer
         A               B7
Sei que meu coração pediria
              E
Duas vezes você

E|-----------------------------------------------------------|
A|-----------------------------------------------------------|
D|-----------------------------------------------------------|
G|---0--2---4-4---------------2----5--4--5--4--5--7--5--4-4--|
B|---------------3---5-5---3---------------------------------|
E|-----------------------------------------------------------|



E|-----------------------------------------------------------|
A|-----------------------------------------------------------|
D|-----------------------------------------------------------|
G|--0--2--4-----5--4--4--5--2------5--4--5--4--5--7--5--4-4--|
B|-----------2-----------------------------------------------|
E|-----------------------------------------------------------|


E                      G#7
 Se eu pudesse não ser como sou
                     C#m    A
E aprendesse como te odiar
                    E
Mas só sei sentir amor
                 F#m   B7
Você sabe que ganhou
                  E     E
Mas não vou me entregar .

B7
Todos os meus sonhos são teus
       C#m
Pois comigo vc sempre está
       A                 B7
Mesmo quando eu penso em Deus
                 E                      B7
Eu só sei te lembrar, te lembrar, te lembra aaa
B7
Se fosse preciso escolher
       C#m
entre amar ou poder te esquecer
         A               B7
Sei que meu coração pediria
              E
Duas vezes você (2x)

No fim :
              E  A E
Duas vezes  você.

Comentários 1

  • Joao Joao : Postado em 31/07/2013 22:44

    Muito boa e fácil.

Composição: Sabe quem é o compositor? Envie pra gente. Contribuição: Rafaaloko Correções: pretinho13 »
Exibir acordes »
publicidade
fechar