Esta Noite Eu Queria Que O Mundo Acabasse

Bruno e Marrone

 Bruno e Marrone
Tom: G
		

 Intro: Em  E7  Am  D7  G  C  B7  C  B7
E|--------------|
B|--------------|
G|--------------|
D|--------------|
A|-3-2-0--------|
E|------3-2-0---|



E|7-7-7-7-7-7-7--12-12-12-12-12-12-12--10-8-7-------|
B|-------------------------------------------10-8-10|
G|--------------------------------------------------|
D|--------------------------------------------------|
A|--------------------------------------------------|
E|--------------------------------------------------|



E|-----------7-8-10--10-8-7-------------------------|
B|10-10-10-10--------------10-7-7/8-----------------|
G|--------------------------------------------------|
D|--------------------------------------------------|
A|--------------------------------------------------|
E|--------------------------------------------------|



E|----------7-8----8-7-----------|8-8-8-7|
B|8-8-8-8-10----------10-8-10-8-7|8-8-8-7|
G|-------------------------------|-------|
D|-------------------------------|-------|
A|-------------------------------|-------|
E|-------------------------------|-------|


      Em      E7                   Am
Esta noite eu queria que o mundo acabasse
            D7                   G
E para o inferno o Senhor me mandasse
        C                    B7  C B7
Para pagar todos os pecados meus

      Em      E7                   Am
Esta noite eu queria que o mundo acabasse
            D7                   G
E para o inferno o Senhor me mandasse
        C                    B7  C B7
Para pagar todos os pecados meus

D7                             G
Eu fiz sofrer a quem tanto me quis
       C                Am
Fiz de ti meu amor infeliz
       C                 B7
Esta noite eu queria morrer
   Em
Perdão
         E7                Am
Quantas vezes tu me perdoaste
         D7                 G
Quanto pranto por mim derramaste
          C               B7  C B7
Hoje o remorso me faz padecer
D7                         G
Esta é a noite da minha agonia
     C                  Am
É a noite da minha tristeza
B7                    Em Am B7
Por isso eu quero morrer

(Intro)

D7                             G
Eu fiz sofrer a quem tanto me quis...
155.125 exibições

Comentários 1

  • JBATISTA JBATISTA: Postado em 26/03/2011 13:50

    OBS. NO LUGAR DO Am NA PARTE FIZ DE TI MEU AMOR INFELIZ, TIRA E COLOCA UM F# OK ACHO QUE FICA MELHOR. ABRAÇO

Composição: Silvio Lima
Esse não é o compositor? Avise-nos.
Contribuição: felipe Correções: Reei e mais 1 »
Exibir acordes »
publicidade
fechar