Parabéns Pro Nosso Amor

Bruno e Marrone

 Bruno e Marrone
Tom: E
Afinação: D G C F A D
		
Intro: A E A E A E


E|------------------------------|-------------------|
B|------------------------------|-------------------|
G|------------------------------|-------------------|
D|----------------0--2s-4s-2-0--|-------------------|
A|-----------0s-2---------------|-------------------|
E|------------------------------|--3----------------|



E|------------------------------|-------------------|
B|------------------------------|-------------------|
G|------------------------------|-------------------|
D|----------------0--2s-4s-2-0--|--0----------------|
A|-----------0s-2---------------|-------------------|
E|------------------------------|-------------------|


               E
Eu sei que acabou

Aquele seu amor
              F#m
Não é mais o mesmo
              B
Está tão diferente

Já esqueceu da gente
             E  A E
De quem te ama

              A
Você nem lembrou
              A7
E esse dia passou
                     E   E7
Meu coração sofreu calado
                       F#m
No dia em que me disse sim
                     A
Juramos um amor sem fim
                 E     A E
Tantos anos de casados

               F#m   B
Parabéns pra você
                  E      A        E
Parabéns pra nós dois  (pra nós dois)
                   F#m
Mesmo você se esquecendo
                    B
Continua em mim crescendo
                 E        E A
Esse desejo louco de te amar

             F#m   B
Parabéns pra você
                  E      A        E
Parabéns pra nós dois  (pra nós dois)
                 F#m
E nesse dia abençoado
                    B
Eu te quero do meu lado
                        E
Pra ver o nosso amor recomeçar
91.078 exibições

Comentários 1

  • Lervisc Lervisc: Postado em 10/07/2012 20:15

    Essa música original é D (ré).

Composição: Sabe quem é o compositor? Envie pra gente. Contribuição: caleugh Correções: Marcelo e mais 2 »
Exibir acordes »
publicidade
fechar