Só Pro Meu Prazer

Bruno e Marrone

 Bruno e Marrone
Tom: D(acordes na forma do tom C)
Capotraste na 2ª casa		
Intro 2x: C9  C11  C9  C11
Riff:

E|------------------|
B|------------------|
G|---0-----0--------|
D|0h2---0h2---------|
A|------------------|
E|------------------|


  C9                 C11
Não fala nada, deixa tudo assim por mim
  C9 			     C11
Eu não me importo se nós não somos bem assim

C9                         C11
É tudo real, as minhas mentiras
C9                     C11		       G Am
E assim não faz mal, e assim não me faz mal não
Am
Noite e dia se completam
	 G
Nosso amor e ódio eterno
Am
Eu te imagino, eu te conserto
            G
Eu faço a cena que eu quiser
Dm				C7+
Tiro a roupa pra você, minha maior ficção de amor
Dm	      F/A      Dm      G
Eu te recriei só pro meu prazer
		C9
Só pro meu prazer

(Intro / Riff)

C9		        C11
Não vem agora com essas insinuações
C9			   C11
Os seus defeitos ou de algum medo normal
C9			          C11
Será que você não é nada que eu penso
C9			    C11
Também se não for, não me faz mal
		 G Am
Não me faz mal não.

Am
Noite e dia se completam
	 G
Nosso amor e ódio eterno
Am
Eu te imagino, eu te conserto
            G
Eu faço a cena que eu quiser
Dm				C7+
Tiro a roupa pra você, minha maior ficção de amor
Dm	      F/A      Dm    G
Eu te recriei só pro meu prazer
		C9
Só pro meu prazer
Solo:

E|--------------7/9-9-------7-7---------
B|-----------5--------10-10-----7-------
G|------2--6----------------------------
D|----4---------------------------------
A|--5-----------------------------------
E|--------------------------------------



E|-----5-5--7-7-----5-5--------------------------
B|--------------7-7-----5-5-7-7-3-3-5-5-2-3------
G|------------------------------------------4----
D|-----------------------------------------------
A|-----------------------------------------------
E|-----------------------------------------------



E|-----9H10H9-----7H9-7------------9H10H9---------14---
B|-----10----10-7-------9-7---7----10-----10-7/--------
G|-----9--------------------9------9-------------------
D|-----------------------------------------------------
A|-----------------------------------------------------
E|-----------------------------------------------------



E|--12p0-0-9p0-0-12p0-0-9p0-0-10p0-0-7p0-0--9p0-0-5p0-0-7p0-0-----
B|----------------------------------------------------------------
G|----------------------------------------------------------------
D|----------------------------------------------------------------
A|----------------------------------------------------------------
E|----------------------------------------------------------------



E|----------------------------------------------
B|-3-2-3-2--------------------------------------
G|-----------4-2-4-2----------------------------
D|-------------------4-2-4-2--------------------
A|------------------------------4-2-------------
E|----------------------------------------------

Comentários 15

  • gedsonsaraiva gedsonsaraiva: Postado em 30/07/2014 11:24

    Mesmo com o capo as notas não são essas, nem o solo da introdução é nessa nota, e no solo onde toca três cordas juntas (3° tab) tá errado.

  • gedsonsaraiva gedsonsaraiva: Postado em 30/07/2014 11:13

    O cara que fez essa versão errou em vários pontos, o unico que usa o capotraste na musica é o Marquinhos, o Bruno e o Marrone não usam.

  • jacktheloko jacktheloko: Postado em 15/06/2014 23:31

    Bruno e marrone letras incríveis mg booom

    • Matheus Matheus : Postado em 27/06/2014 16:43

      essa letra n é deles, é do leoni...

  • Ramilton Ramilton: Postado em 03/12/2013 22:10

    toh pegando solo *-*

  • son son: Postado em 20/10/2013 09:14

    aff, alteraram a versão original que estava muito mais facil, aumentaram o tom e complicaram tudo.

  • Eudes Eudes : Postado em 11/09/2013 09:20

    qual ritmo usado ?

  • k2.. k2..: Postado em 03/09/2012 17:30

    Menos o solo kkk ai e fodakkk.

  • k2.. k2..: Postado em 03/09/2012 17:24

    Acreditan que eu consigo fazer sem capotraste???

    • Ramilton Ramilton: Postado em 19/05/2013 15:35

      tmb consigo o.O

Exibindo 10 de 15 comentários Mostrar mais ver todos »
Composição: Leoni / Fernanda Kherlakian
Esse não é o compositor? Avise-nos.
Contribuição: Barão Vermelho Correções: GEOVANI , tito e mais 8 »
Exibir acordes »
publicidade
fechar