Te amar foi ilusão

Bruno e Marrone

 Bruno e Marrone
Tom: C
		
Intro: G  F  C  F (G7 F#7 F7) G

Piano

E|--------------------|
B|--5-6-8--8-10-6-----|
G|--------------------|
D|--------------------|
A|--------------------|
E|--------------------|


Guitarra

E|-----8-7-5-7--------|         
B|-------------8------|         
G|--5-----------------|         
D|--------------------|
A|--------------------|
E|--------------------|


Piano

E|----------------------------------------
B|-------8-8-10-6-------------------------
G|---7-9----------------------------------
D|----------------------------------------
A|----------------------------------------
E|----------------------------------------


Guitarra

E|---5----------8-10-12-12h13-12-10------15h17--15-13-12-13--12--10-10-8-7--------|
B|-----8-6-5-6-----------------------13------------------------------------10-8---|
G|-5------------------------------------------------------------------------------|
D|--------------------------------------------------------------------------------|
A|--------------------------------------------------------------------------------|
E|--------------------------------------------------------------------------------|




    C  C7+    C                                G7
Eu sei...... talvez eu tenha sufocado o teu sentimento não
                              F   F7+   F
consegui sintonizar teu pensamento..... saber o que você queria
             C                G7
arrancar de mim me deixando assim
 F
não sei será que eu me
                            C        C7+   C
enganei o tempo todo com o seu olhar....   e apesar de tudo o
                  G/B      F/A     F      G7      C   F  C
que vivi eu me deixei levar    que ilusão foi te amar
Am  G7
G7   Am  G/B    C   C7+    C
Vai en..con...trar...  alguém que você ame e que te faça o
          G7               F
que fez comi...go e vai chorar cada lágrima que um dia
                   C/G  Am  F       G7
derramei por te querer      por te amar
G7  Am  G/B   C   C7+    C
E   vai sen...tir     a dor da indiferença desse alguém que
Am       G7           F       G7
só te engana vai aprender a viver e dar valor no amor de quem
   C
te ama..

Base do Solo:
 C  G/B  Am  Am  Dm  F/A  G/B  C  C7

Solo:

E|------------------------------------------------------------
B|---------6-5-5---5-------6-5--------------------------------
G|-----5-7-------7-----7-5-----7-7-5-7--4-5-7-7-5-5-4-4h5-----
D|------------------------------------------------------------
A|------------------------------------------------------------
E|------------------------------------------------------------



E|--------------------------------------------------------------
B|------------------------------6h8-6-6-5-6-6p5-----------------
G|--------------------------5-7-------------------7-5-5---------
D|--7-5-7h9--7-7-5-7----5-7-------------------------------------
A|--------------------------------------------------------------
E|--------------------------------------------------------------



E|----------------------------------8-------------------------
B|----------------------------5-6-8---------------------------
G|-------5-7-----5---5--7-5-7---------------------------------
D|-----7-----5-7---7------------------------------------------
A|------------------------------------------------------------
E|------------------------------------------------------------



     F                                             C
Não sei será que eu me enganei o tempo todo com o seu olhar
C7+      C                               G/B      F/A
    e apesar de tudo o que vivi eu me deixei levar    que
  F    G7         C   F  C  Am  G7
ilusão   foi te amar

REPETE REFRÃO

Solo final: F  G  G/B  C
160.361 exibições

Comentários 0

Composição: Luiz Cláudio / Bruno
Esse não é o compositor? Avise-nos.
Contribuição: senhoritakent Correções: Valdemir , carlosh e mais 3 »
Exibir acordes »
publicidade
fechar