Te amar foi ilusão

Bruno e Marrone

 Bruno e Marrone
Tom: C
		
iNTRO: G7 F  C  F  G7  F  Am  G7

Solo Guitarra


E|-----8-7-5-7-------5----------8-10-12-12h13-12-10------------
B|-------------8-------8-6-5-6-----------------------13--------
G|--5--------------5-------------------------------------------
D|-------------------------------------------------------------
A|-------------------------------------------------------------
E|-------------------------------------------------------------



E|-15h17--15-13-12-13--12--10-10-8-7---------------------------
B|-----------------------------------10-8----------------------
G|-------------------------------------------------------------
D|-------------------------------------------------------------
A|-------------------------------------------------------------
E|-------------------------------------------------------------


Complemento Piano

E|--------------------|----------------------------------------
B|--5-6-8--8-10-6-----|-------8-8-10-6-------------------------
G|--------------------|---7-9----------------------------------
D|--------------------|----------------------------------------
A|--------------------|----------------------------------------
E|--------------------|----------------------------------------


    C  C7+    C                                G7
Eu sei...... talvez eu tenha sufocado o teu sentimento não
                              F   F7+   F
consegui sintonizar teu pensamento..... saber o que você queria
             C                G7
arrancar de mim me deixando assim
 F
não sei será que eu me
                            C        C7+   C
enganei o tempo todo com o seu olhar....   e apesar de tudo o
                  G/B      F/A     F      G7      C   F  C
que vivi eu me deixei levar    que ilusão foi te amar
Am  G7
       G7  Am  G/B    C   C7+    C
Vai en..con...trar...  alguém que você ame e que te faça o
          G7               F
que fez comi...go e vai chorar cada lágrima que um dia
                   C/G  Am  F       G7
derramei por te querer      por te amar
G7  Am  G/B   C   C7+    C
E   vai sen...tir     a dor da indiferença desse alguém que
Am       G7           F       G7
só te engana vai aprender a viver e dar valor no amor de quem
   C
te ama..

Solo:

E|------------------------------------------------------------
B|---------6-5-5---5-------5-5--------------------------------
G|-----5-7-------7-----7-5-----7-7-5-7--4-5-7-7-4-5-4h5-------
D|------------------------------------------------------------
A|------------------------------------------------------------
E|------------------------------------------------------------



E|------------------------------------------------------------
B|----------------------------6-6h8-6-6-5-6-6h5---------------
G|------------------------5-7-------------------7-5-7---------
D|--7-5-7h9--7-7-5-7--5-7-------------------------------------
A|------------------------------------------------------------
E|------------------------------------------------------------



E|----------------------------------8-------------------------
B|----------------------------5-6-8---------------------------
G|-------5-7-----5---5--7-5-7---------------------------------
D|-----7-----5-7---7------------------------------------------
A|------------------------------------------------------------
E|------------------------------------------------------------



INTRO: G7  C  G/B  Am  G7  Am  Dm  F/A  G/B  C  C7

     F                                             C
Não sei será que eu me enganei o tempo todo com o seu olhar
C7+      C                               G/B      F/A
    e apesar de tudo o que vivi eu me deixei levar    que
  F    G7         C   F  C  Am  G7
ilusão   foi te amar

REPETE REFRÃO

Solo final: F  G  G/B  C
Texto Colunas
Alterar tom ½ tom ½ tom
afinação acordes na letra esconder tabs mais »
155.307 exibições

Comentários 0

Composição: Luiz Cláudio / Bruno
Esse não é o compositor? Avise-nos.
Contribuição: senhoritakent Correções: Valdemir , Athosfel e mais 2 »
  1. Até Você Voltar - Henrique e Juliano Manteve-se 101.546 exibições
  2. Domingo de Manhã - Marcos e Belutti Manteve-se 82.018 exibições
  3. Cuida Bem Dela - Henrique e Juliano Manteve-se 57.365 exibições
  4. Tudo Que Você Quiser - Luan Santana Manteve-se 49.298 exibições
  5. Choram As Rosas - Bruno e Marrone Manteve-se 48.522 exibições
  6. Recaídas - Henrique e Juliano Manteve-se 44.945 exibições
  7. Raridade - Anderson Freire Manteve-se 36.388 exibições
  8. Pra Você - Onze:20 Manteve-se 35.859 exibições
  9. Só Os Loucos Sabem - Charlie Brown Jr. Manteve-se 33.085 exibições
  10. Logo Eu - Jorge e Mateus Manteve-se 31.121 exibições
  1. Henrique e Juliano- Manteve-se 296.229 exibições
  2. Jorge e Mateus- Manteve-se 231.662 exibições
  3. Legião Urbana- Manteve-se 209.813 exibições
  4. Bruno e Marrone- Manteve-se 170.060 exibições
  5. Charlie Brown Jr.- Manteve-se 155.343 exibições
  6. Luan Santana- Manteve-se 151.312 exibições
  7. Fernandinho- Manteve-se 119.769 exibições
  8. Marcos e Belutti- Manteve-se 100.114 exibições
  9. Thalles Roberto- Manteve-se 93.296 exibições
  10. The Beatles- Manteve-se 82.801 exibições
Exibir acordes »

Cifras e tabs

Fórum Cifra Club

Aprenda

Cifra Club News

Mais Serviços Cifra Club ID

Studio Sol

©1996 - 2014 Cifra Club · o primeiro, maior e mais acessado do Brasil · 339 mil músicas · 6.3 milhões pessoas cadastradas

publicidade
fechar