Um Sonho Louco

Bruno e Marrone

 Bruno e Marrone
Tom: D
		
Intro:  G  A  D  Em  G  A  D

Solo:


    G           A              D                 Em
E|-------------------------------------------------------|
B|--------------------------7-7----7-8-10-7--------------|
G|-----7------7-7-----7-7-9-----------------9-7-9---7-9--|
D|-9-9----9-9-----9-9-----------------------------9------|
A|-------------------------------------------------------|
E|-------------------------------------------------------|



    G           A              D
E|-------------------------------|
B|--------------------------7-7--|
G|-----7------7-7-----7-7h9------|
D|-9-9----9-9-----9-9------------|
A|-------------------------------|
E|-------------------------------|


             Em		   A4  A
Foi tão difícil entender
 	F#m		Bm7
Foi complicado pra mim
 	    G		     A4  A
Hoje eu sonhei com você
 	  D
Nunca sofri tanto assim

 	Em		A4  A
Te vi beijando na boca
 		F#m	  Bm7
De alguém que não era eu
         Em		  G
E entregou feito louca
         A           D		A
Aquele amor que era meu

Refrão
 	           D
Quando acordei, estava ali
 	    Em
Bem do meu lado
 	    G		   Em    A
Nem te acordei, então te amei
	D		A
Desesperado, inconformado

           D	        D7
Então me olhou e perguntou
 	    G                 Gm
Do meu sufoco, se eu fiquei louco
 	     D		A
É que eu perdi o seu amor
             D
Num sonho louco


Solo


E|-------------------------------------------------------------------|
B|-7-8-10-----7-----7-8-10-----------7---------------------------7-7-|
G|--------9-----9----------7---9-8-9---------7-----7-7-----7-7h9-----|
D|----------9----------------9-----------9-9---9-9-----9-9-----------|
A|-------------------------------------------------------------------|
E|-------------------------------------------------------------------|


	Em		A4  A
Te vi beijando na boca
 		F#m	  Bm7
De alguém que não era eu
         Em		  G
E entregou feito louca
         A           D		A
Aquele amor que era meu

Refrão
 	           D
Quando acordei, estava ali
 	    Em
Bem do meu lado
 	    G		   Em    A
Nem te acordei, então te amei
	D		A
Desesperado, inconformado

           D	        D7
Então me olhou e perguntou
 	    G                 Gm
Do meu sufoco, se eu fiquei louco
 	     D		A
É que eu perdi o seu amor
             D
Num sonho louco

	     D		A
É que eu perdi o seu amor
             D
Num sonho louco


Solo Final


E|-------------------------------|
B|--------------------------7-7--|
G|-----7------7-7-----7-7h9------|
D|-9-9----9-9-----9-9------------|
A|-------------------------------|
E|-------------------------------|
34.042 exibições

Comentários 0

Exibir acordes »
publicidade
fechar