Road To Nowhere

Bullet For My Valentine

 Bullet For My Valentine
Tom: D
		
Intro: Bm  G  A  D  F#m
       Bm  G  A  F#m

Bm        G                     A
Tired and lonely still we stand
                     D F#m
on a road to nowhere
Bm           G                     A
Trapped in a world of endless days
                    D F#m
my engine's stalling (road to nowhere)
Bm       G                    A
Body and mind are breaking down
                     D   F#m
on this road to nowhere
Bm      G                  A
Destiny silent hear no sound

as i wait forever

G              A
Farewell, i'll miss you
    F#m             Bm
i'm sick of these goodbyes
         G (deixa soar)
'Cause it tore us apart right from the start
A
I miss you

E|-------------------------------------------------------------------------|
B|---------------------xh3-2-0-2-3-5-3-x-h7-5-3-5-3-2-3-xh7-5-3-5-7-8-7----|
G|----------------2----x---------------x----------------x------------------|
A|----------0h2h4------x---------------x----------------x------------------|
A|-----0h2-----------------------------------------------------------------|
D|-0h2---------------------------------------------------------------------|


Bm           G
Feeling have failed me
           A
left me cold
                    D  F#m
on this road to nowhere
Bm            G
Dreams are my saviors
           A
save me now
                      D  F#m
'Cause I know I'm falling

G              A
Farewell, i'll miss you
    F#m              Bm
i'm sick of these goodbyes
         G (deixa soar mano)
'Cause it tore us apart right from the start
A
I miss you

D|---------------------------------------------------------|
A|---------------------------------------------------------|
F|---------------------------------------------------------|
C|-9--------------9--------------9------11--9--7--7--9--11-|
G|-9------9-------9------9-------9------11--9--7--7--9--11-|
D|-9(2x)--9(27x)--9(3x)--9(20x)--9(7x)--9---7--5--5--7--9--|


Candles burn slowly,
Flames shine so brightly
Light in the darkness,
Save me from madness again
Only the lonely,
could possibly know me
Heat keeps on rising,
Fire engulfs me again

G              A
Farewell, i'll miss you
    F#m              Bm
i'm sick of these goodbyes
         G
'Cause it tore us apart right from the start
A
I miss you

G              A
Farewell, i'll miss you
    F#m              Bm
i'm sick of these goodbyes
         G (vai soando)
'Cause it tore us apart right from the start
A            D
I miss you
(dedilhado final)

D|--------7---------------|
A|--------------------7---|
F|-----9------------------|
C|---9----------9--7------|
G|-7----------7-----------|
D|------------------------|
32.970 exibições

Comentários 3

  • Lucas Lucas: Postado em 19/06/2013 21:42

    Só peguei no violão, a parte da guitarra não entendi nada

  • kakashi kakashi: Postado em 13/11/2011 11:00

    O penúltimo "D" esta errado deveria ser "G" e a musica termina deixando soar o "D"

  • felix_maggot felix_maggot: Postado em 07/09/2011 02:19

    essa cifra é bixera,prefiro o riff msm ._.

Composição: Candy Cameron / H. Camacho / Julio Iglesias / Luciano / Luis Carlos Monroy
Esse não é o compositor? Avise-nos.
Contribuição: kizu Correções: giovanni14 , Gabbs Christ e mais 5 »
Exibir acordes »
publicidade
fechar