Dia Perfeito

Cachorro Grande

 Cachorro Grande
Tom: C
		
Intro - Am Dm C E  3x


e|-5----5---------------------------------------------------------------------7-
B|-3^4--3^4--3--------------------------------------------------------------5---
G|-------------5-2-5-2---2-------2--------5-7-4-5---4-------------------5-7-----
D|---------------------5-------5---5-5/7----------7---5-7-0-5---7-7-5-7---------
A|------------------------------------------------------------------------------
E|------------------------------------------------------------------------------



e|8-10/12-8------------------------------------------------------------
B|----------8-10--10-10-10-8-10^8--------------------------------------
G|---------------------------------10-7-5-7-10-7-5-7-5---5--------------
D|----------------------------------------------------7---7-5-0-7/0----
A|---------------------------------------------------------------------
E|---------------------------------------------------------------------


Am Dm      C   E Am        Dm       C       E 
   Dia perfeito  pára na esquina e diz good-bye
  Am    Dm      C    E  
Flutua como uma nuvem
 Am  (pausa)                   
She really have a groove
Am Dm    C  E  Am    Dm   C     E 
   Fina flor e disse você é um amor
  Am    Dm      C    E   
E disse algo me entedia
 Am
Era isso que eu sentia

Dm       Dm7 
  E me falou  dos seus romances 
          C            F       G       E7    Am    E
E quando pensa em aprontar ela vai e apronta antes

Am   Dm      C   E     Am  Dm  C  E
   E eu realmente não creio 
 Am     Dm   C  E 
Que de fina flor
 Am                         
O cangalho esteja cheio                                 

Dm     Dm7  
  E me disse esquisitices
          C             F         G            E7     Am  E
E que também vai se guardar para quando o carnaval chegar

Solo:

e|-------------------------------------------------------
B|---------10-6^--6/8--5----------8----------------------
G|-------9----------------------9---10^--10-9--4---------
D|--7-10-------------------7-10------------------7-------
A|-------------------------------------------------------
E|-------------------------------------------------------



e|---------------------------|--------------------------- 
B|---------10-6^--6/8--8/10------10-10-10----------------
G|-------9-------------------|-----8--8--8--9-7-7-9-7----
D|--7-10---------------------------------------9---------
A|---------------------------|---------------------------
E|---------------------------|---------------------------


Dm       Dm7 
  E me falou  dos seus romances 
          C            F       G       E7    Am   E
E quando pensa em aprontar ela vai e apronta antes

Am Dm      C   E Am        Dm       C       E
   Dia perfeito  pára na esquina e diz good-bye
   Am  Dm       C     E  
Flutua como uma nuvem
 Am  (pausa)                   
She really have a groove

Solo final:

e|-------------------------------------------------------
B|---------10-6^--6/8--5----------8----------------------
G|-------9----------------------9---10^--10-9--4---------
D|--7-10-------------------7-10------------------7-------
A|-------------------------------------------------------
E|-------------------------------------------------------



e|------------------------------------------------------- 
B|---------10-6^--6/8--5----------8----------------------
G|-------9----------------------9---10^--10-9------------
D|--7-10-------------------7-10---------------7^---------
A|-------------------------------------------------------
E|-------------------------------------------------------

Comentários 0

Composição: Sergej Galojan / Willie Johnson
Esse não é o compositor? Avise-nos.
Contribuição: Léo HB Correções: Alenarquista e mais 2 »
Exibir acordes »
publicidade
fechar