Que Loucura

Cachorro Grande

 Cachorro Grande
Tom: G
		
Intro:

e|-------0------0-------------------------------3----------------------|
B|------0---0-----0---------3-------1-------3-----3------4-4-----------|
G|-----0------0-----0-----2---------------0---0-----0----4-4-----------|
D|----2-----------------0---------2----------------------4-4-----------|
A|---2--------------------------3----------------------2---------------|
E|--0-----------------------------------3----------------------0-3-2-0-|


Intro 2x

Em           D      C    G            B7
Tenho pressa pra chegar, pressa de outro lugar  
Em              D     C  
em que eu possa me sentir
G             A         Am        Em
Dentro de uma bolha que flutua por aí

Em          D     C   G          B7
Pare de me perguntar: onde eu quero chegar
 Em          D     C
sinto que só quero ir 
 G               A          Am       Em
em cima de um tapete que flutua por aí

 G               A      Am       Em
Isso é uma loucura!  Tchuruchuchuchu
 G               A      Am       Em
Isso é uma loucura...Tchuruchuchuchu

  C7 ////  G //


E|-0-0-0-0--3--3-----------
B|-1-1-1-1--3--3-----------
G|-3-3-3-3--0--0-----------
D|-2-2-2-2--0--0-----------
A|-3-3-3-3--2--2-----------
E|----------3--3--2-3-2----


Em             D     C G           B7
Minha razão de existir é ter você sempre aqui
Em           D        C   G
do meu lado e por que não vem comigo
       A      Am         Em
num Domingo voar no meu balão?
 
 G               A      Am       Em
Isso é uma loucura!  Tchuruchuchuchu
 G               A      Am       Em
Isso é uma loucura...Tchuruchuchuchu

  C7 ////  G //


E|-0-0-0-0--3--3-----------
B|-1-1-1-1--3--3-----------
G|-3-3-3-3--0--0-----------
D|-2-2-2-2--0--0-----------
A|-3-3-3-3--2--2-----------
E|----------3--3--2-3-2----


Solo:

  (Em           C#          C             Em) 2X
e|------------------------------------------------------------------------------------------|
B|------------------------------------------------------------------------------------------|
G|------------7------------------------------------------------7----------------------------|
D|--------7-9---11~-11~--10~-10~--12-----------------------7-9---11~-11~--10~-10~--12~-12~--|
A|-7-9-10-----------------------------10--7--7-5-7--7-9-10----------------------------------|
E|------------------------------------------------------------------------------------------|


  (G            A          C7 ////        G //)
e|--------------------------------------------|
B|-----8--5-----------------------------------|
G|-7h9-------4s2--0-2s4s2-0--2s4s2-0----------|
D|--------------------------------------2s5---|
A|--------------------------------------------|
E|--------------------------------------------|


Em           D      C    G            B7
Tenho pressa pra chegar, pressa de outro lugar  
Em              D     C  
em que eu possa me sentir
G             A         Am        Em
Dentro de uma bolha que flutua por aí

 G               A      Am       Em
Isso é uma loucura!  Tchuruchuchuchu
 G               A      Am       Em
Isso é uma loucura...Tchuruchuchuchu
 G               A      Am       Em
Isso é uma loucura!  Tchuruchuchuchu
 G               A      Am       Em
Isso é uma loucura...Tchuruchuchuchu
 G               A      Am      Em
Isso é uma loucuraaaaaaaaaaaaa!!!
 G               A      Am      Em
Isso é uma loucuraaaaaaaaaaaaa!!!

Final:

e|--3------0-------0-0-0-0--3-3-------------------------3----|
B|--3------2-------1-1-1-1--3-3------------------------3-----|
G|--0------2-------3-3-3-3--0-0-----------------------0------|
D|--0------2-------2-2-2-2--0-0---------0-0h2--------0-------|
A|--2------0-------3-3-3-3--2-2-----0h2-------2-0---2--------|
E|--3-----------------------3-3--------------------3---------|
110.369 exibições

Comentários 1

  • borrazorba borrazorba: Postado em 24/07/2012 21:34

    eae galera do cifra, fabrica uma video aula ae pra genti ...

Composição: Marcelo Gross
Esse não é o compositor? Avise-nos.
Contribuição: Mateus Paul Correções: maresiaa , celo e mais 2 »
Exibir acordes »
publicidade
fechar