Você Não Sabe o Que Perdeu

Cachorro Grande

 Cachorro Grande
Tom: G
		
Intro: D C D F (2x)conforme tab abaixo


e|----------------------------------
B|--777/---555/---777/---101010-----
G|--777/---555/---777/---101010-----
D|----------------------------------
A|--555/---333/---555/---8888-------
E|----------------------------------


Riff verso:


e|---------------------------|
b|--x----------------6s5-5---|
G|--x--7-7-7--5-(5)--5-5-5---|
D|--x--7-7-7--5-(5)--3-3-3---|
A|--x--5-5-5--3-(3)----------|
E|---------------------------|


D           C
PRA ONDE EU VOU 
       D	 C
NÃO PRECISA DE DINHEIRO 
D	    C
PRA ONDE EU VOU 
     D		    C
É ALEGRIA O TEMPO INTEIRO 

Riff intro (2x)
  
Riff verso:


e|---------------------------|
b|--x----------------6s5-5---|
G|--x--7-7-7--5-(5)--5-5-5---|
D|--x--7-7-7--5-(5)--3-3-3---|
A|--x--5-5-5--3-(3)----------|
E|---------------------------|


D       C
SE VOCÊ FOR 
    D             C  
NÃO VAI SE ARREPENDER 
D          C
MAS SE NÃO FOR 
     D            C 
O QUE É QUE VÃO DIZER? 

  
G        F                  Riff
VOCÊ NÃO SABE O QUE PERDEU 
G        F	
VOCÊ NÃO VIU O QUE ACONTECEU

REPETE TUDO

RIFF

e|---------------------------------------------|
B|----6-8-8s10-10-10-6-------------------------|
G|5s7------------------7-5-7/~~~~--------------|
D|---------------------------------------------|
A|---------------------------------------------|
E|---------------------------------------------|


ACORDES

   C   D   F   F*   G
e|---|---|---|----|---|
b|---|---|---|----|---|
G|-5-|-7-|---|-10-|---|
D|-5-|-7-|-3-|-10-|-5-|
A|-3-|-5-|-3-|--8-|-5-|
E|---|---|-1-|----|-3-|

Comentários 3

  • Anderson Anderson: Postado em 12/08/2014 20:37

    a cifra ta certinha

  • nenekyller nenekyller: Postado em 09/11/2012 22:50

    solo solo pfvr

  • xisto xisto: Postado em 13/04/2012 19:26

    falto o solo

Composição: Beto Bruno
Esse não é o compositor? Avise-nos.
Contribuição: Gcolling Correções: diego balduino e mais 2 »
Exibir acordes »
publicidade
fechar