Felicidade

Caetano Veloso

 Caetano Veloso
Tom: C
		
(versão simplificada)


(intro) ( C G C )

     C	           F
Felicidade foi se embora
	           G/F          Em
E a saudade no meu peito ainda mora
		   Am           Dm
E é por isso que eu gosto lá de fora
		    G	        C
Porque sei que a falsidade não vigora

    C	           F
Felicidade foi se embora
	            G/F          Em
E a saudade no meu peito ainda mora
		   Am           Dm
E é por isso que eu gosto lá de fora
		    G	        C
Porque sei que a falsidade não vigora

	 C                        F
A minha casa fica lá de traz do mundo
		  G			 C
Onde eu vou em um segundo quando começo a cantar
     C   			      F
O pensamento parece uma coisa à toa
		      G			  C
Mas como é que a gente voa quando começa a pensar

(repete tudo 3x)

(solo 2x) ( C F G/F Em Am Dm G C )

	 C                        F
A minha casa fica lá de traz do mundo
		  G			 C
Onde eu vou em um segundo quando começo a cantar
     C   			      F
O pensamento parece uma coisa à toa
		      G			  C
Mas como é que a gente voa quando começa a pensar

(repete tudo 2x)

(tablatura do 2ª estrofe ("A minha casa fica ...”)


E |----------------------------------------|
B |----------------------------------------|
G |----------------------------------------|
D |--------------2--3--2-0-----------------|
A |------2-3---5--5--------3-2---0---------|
E |--3-5---------------------------3--1-0--|



E |----------------------------------------|
B |----------------------------------------|
G |----------------------------------------|
D |--------------2--3--2-0-----------------|
A |------2-3---5--5--------3-2---0---5-3---|
E |--3-5---------------------------3-------|


(tablatura acima é a transcrição do contrabaixo, que pode ser feita no violão)


E |------5-6--10-12--10-13--12-10--8-7------------|
B |--6-8-------------------------------10-8--6-5--|
G |-----------------------------------------------|
D |-----------------------------------------------|
A |-----------------------------------------------|
E |-----------------------------------------------|



E |------5-6--10-12--10-13--12-10--8-7-------10-8--|
B |--6-8-------------------------------10-8--------|
G |------------------------------------------------|
D |------------------------------------------------|
A |------------------------------------------------|
E |------------------------------------------------|


(pode ser feito como descreve a tablatura acima, que é a transcrição do violão)
129.705 exibições

Comentários 1

  • Jeferson Jeferson: Postado em 23/07/2014 09:40

    pode fazer uma video aula dessa musica?

Composição: Antonio Carlos Jobim / Geraldão / Mr. Lordi / Omari Grandberry / Vinícius de Moraes
Esse não é o compositor? Avise-nos.
Contribuição: Reniê Correções: Reniê e mais 2 »
Exibir acordes »
publicidade
fechar