Caetano Veloso

O Leãozinho

18.323 exibições
Tom: C
Intro: C 

C                   G
Gosto muito de te ver leãozinho
Am              Em
Caminhando sob o sol
F                    Bb         C     
Gosto muito de te ver leãozinho
C                     G
Para desentristecer leãozinho
Am                     Em
O meu  coração tão só
F                     Bb                 C
Basta eu encontrar você no caminho

Refrão:
Am              Am7M             Am7    Am6
Um filhote de leão raio da manhã
F7M                      Em        Dm   G7
Arrastando o meu olhar como um imã
Am                     Am7M        Am7  Am6
O meu coração é o sol pai de toda cor
F7M                     Em      Dm      G7
Quando ele lhe doura a pele ao léu

C                     G
Gosto  de te ver ao sol leãozinho
Am                       Em
De te ver entrar no mar
F                  Bb   C
Tua pele tua luz tua juba
C                  G
Gosto de ficar ao sol leãozinho
Am                    Em
De molhar minha juba
F               Bb              C
De estar perto de você e entrar numa

Tablatura para baixo de 4 cordas:

Intro:

   C	          
G|------------5-----------|
D|---2-5-2-5----2-5-2-5---|
A|-3---------3----------3-|
E|------------------------|

Verso:
    C	       G		 Am	  Em
G|--------------------------------2---------------|
D|----2-5-2-5--------------------------------2----|
A|--3-------------2-5-2-5----0--3---3-------------|
E|--------------3----------------------0-0-3---3--|

    F	    Bb	     C
G|------------3-3-3---------------5----------|
D|---3-3-3---------------2-5-2-5----2-5-2-5--|
A|-----------1-1-1-1---3---------3-----------|
E|--1-1-1-1----------------------------------|

Refrão:
    Am		     Am7+
G|-----14-14-----14-14-----13-13----13-13-|
D|----------------------------------------|
A|-/12-------12---------11-------11-------|
E|----------------------------------------|
 
     Am7			Am6
G|-----12-12-----12/14\12-----11-11-----|
D|--------------------------------------|
A|---10------10--10/12\10---9-------9---|
E|--------------------------------------|

    F		 Em           Dm		G	   
G|----10-10---10-10---9-9---9-9----7-7---7-7----12-12----12-|
D|----------------------------------------------------------|
A|--8-------8-------7-----7------5-----5-----/10-----10-----|
E|----------------------------------------------------------|

    Am		      Am7+
G|-----14-14-----14-14-----13-13----13-13-|
D|----------------------------------------|
A|-/12-------12---------11-------11-------|
E|----------------------------------------|

     Am7			Am6
G|-----12-12-----12/14\12-----11-11-----|
D|--------------------------------------|
A|---10------10--10/12\10---9-------9---|
E|--------------------------------------|

    F		 Em            Dm	        G	   
G|----10-10---10-10---9-9---9-9---7-9-10-11-12----------------|
D|--------------------------------------------------5---------|
A|--8-------8-------7-----7-------5-7-8--9--10---------0-2-3--|
E|---------------------------------------------------3--------|


Mila, te amo!!!




_______________________________________________________
Contribuição: Reniê Barão(reniebarao@terra.com.br)
    Composição: Caetano VelosoColaboração e revisão:
    • Reniê

    Comentários 1

    • Hiure Hiure: Postado em 03/03/2015 22:22

      lixo ta errado demais

    conseguiu tocar?

    Jacob1.478 visualizações
      ver covers de outras músicas »
      0:00 / 0:00

      Capítulos

        1 versão de baixoexibiçõescontribuição e correção
        3 versões de gaitaexibiçõescontribuição e correção
        1 versão de Guitar Proformatodownloadscontribuição
        1 versão de partiturasformatodownloadscontribuição
        play/pausefechar subir/descer velocidade
        6ª corda E5ª corda A4ª corda D3ª corda G2ª corda B1ª corda E
          Exibir acordes
          Feedback
          publicidad
          fechar
          ok