Tom: A
		
E                                          D    A    E
Ouvi noticias, de muito longe,     batendo na minha porta
                                           D    A    E
Eu vi  os garfos, eu vi as facas,  em cima da mesa posta
                               D           A    E
Pra que mensagens e telegramas se você chega e some
                                 D      A    E
Tenho dinheiro e cpf mas nao me lembro o meu nome

( D A E )
Nao há mais festa nem carnaval


E|--------------7----5------------------------|
B|----7--(8)-------------7---3---5---5--------|
G|--------------------------------------------|
D|--------------------------------------------|
A|--------------------------------------------|
E|--------------------------------------------|


Acho que eu fui  enganado
( D A E )
Me diga as horas eu vou me embora


E|--------------7----5------------------------|
B|----7--(8)-------------7---3---5---5--------|
G|--------------------------------------------|
D|--------------------------------------------|
A|--------------------------------------------|
E|--------------------------------------------|


E                                        D     A     E
Prá quê escolas  e  faculdades? nao a nada prá aprender
                                         D     A     E
Eu já não vejo, eu já não penso, já não consigo escrever
                                         D     A    E
Sou faixa preta; toco guitarra; um dia vou pular de asa
                                         D   A      E
Durmo de dia trabalho a noite nem sei se volto pra casa

( D A E )
Nao há mais festa nem carnaval


E|--------------7----5------------------------|
B|----7--(8)-------------7---3---5---5--------|
G|--------------------------------------------|
D|--------------------------------------------|
A|--------------------------------------------|
E|--------------------------------------------|


Acho que eu fui  enganado
( D A E )
Me diga as horas eu vou me embora


E|--------------7----5------------------------|
B|----7--(8)-------------7---3---5---5--------|
G|--------------------------------------------|
D|--------------------------------------------|
A|--------------------------------------------|
E|--------------------------------------------|



E|--------------------------------------------------------------12----|
B|---12---14--15--14--12---14--15--14--12---14--15--14----------------|
G|--------------------------------------------------------------------|
D|--------------------------------------------------------------------|
A|--------------------------------------------------------------------|
E|--------------------------------------------------------------------|



E|--------------------------------------------------------------------|
B|---12---14--15--14--12---15--15--14--12---14--12--------------------|
G|---------------------------------------------------------14----9----|
D|--------------------------------------------------------------------|
A|--------------------------------------------------------------------|
E|--------------------------------------------------------------------|



E|--------------------------------------------------------------------|
B|----------------------------------------------------------------17--|
G|------16---18----19---19--18---16---16--18--19--19--18--------------|
D|--------------------------------------------------------------------|
A|--------------------------------------------------------------------|
E|--------------------------------------------------------------------|



E|-------------------------------------------------------------------------|
B|-------------------------------------------------------------------------|
G|--16---18----19---19--18---16--19--19--18--16--18--16--------------------|
D|----------------------------------------------------------------19---14--|
A|-------------------------------------------------------------------------|
E|-------------------------------------------------------------------------|


E                                    D   A      E
Olho pro trânsito, olho o sinal, tá tudo engarrafado
Fitas k7, computadores e homens codificados
Tem uma loira que tá afim, a ruiva diz que me ama
A negra quer e eu já nem sei quem eu levo pra cama

( D A E )
Não há mais festa nem carnaval


E|--------------7----5---------------------|
B|----7--(8)-------------7---3---5---5-----|
G|-----------------------------------------|
D|-----------------------------------------|
A|-----------------------------------------|
E|-----------------------------------------|


acho que eu fui enganado
( D A E )
Me diga as horas, eu vou me embora


E|-------------7----5---------------------|
B|---7--(8)-------------7---3---5---5-----|
G|----------------------------------------|
D|----------------------------------------|
A|----------------------------------------|
E|----------------------------------------|


Hoje  eu tô atrasado
E                                    D     A     E
Tô abafado me dá licença,  vê se sai da minha frente
Tenho miopia, sou hipertenso, meu pé ta sempre dormente
Amsterdã, via paris, acho que é nesse que eu vou
Mudei o corte do meu cabelo  já nem sei como eu sou

( D A E )
Não há mais festa nem carnaval


E|--------------7----5------------------|
B|----7--(8)-------------7---3---5---5--|
G|--------------------------------------|
D|--------------------------------------|
A|--------------------------------------|
E|--------------------------------------|


acho que eu fui enganado
( D A E )
Me diga as horas, eu vou me embora hoje, eu tô atrasado


E|--------------7----5---------------|
B|----7--8-----------7---3---5---5---|
G|-----------------------------------|
D|-----------------------------------|
A|-----------------------------------|
E|-----------------------------------|



E|-----------------------7----5---------------|
B|----7--8-8---7--8-8----------7---3---5---5--|
G|--------------------------------------------|          (4x)
D|--------------------------------------------|
A|--------------------------------------------|
E|--------------------------------------------|


Atrasadooooooooooooooooooooo        (2x)
Tão atrasado tô atrasado atra atra atrasado
53.732 exibições

Comentários 0

Composição: Marcelo Nova
Esse não é o compositor? Avise-nos.
Contribuição: Noel Correções: andrebahiense e mais 1 »
Exibir acordes »
publicidade
fechar