220 Volts

Capital Inicial

 Capital Inicial
(intro - riff)

(riff)
G|-----------------------    
D|-----------------------    
A|-----------------------    
E|-0-2-0-3-0-5-0-3-0-2-0-3-5 

E|--0-000-0-0-000-0-
Mãos no volante           
Duzentos metros atras     (riff)

E|--5-555-5-5-555-5-
pés no espelho 
duzentos cigarros depois  (riff)

(refrão)
A|--777-7-888-8-777-7-------------------    
E|-------------------8-8-8-10-10-10\555-     
Dedos na parede                             
Tubarões na minha rede                      
Gasolina mata a sede                        
Duzentos e vinte volts    (riff)          

E|--0-000-0-0-000-0-
freios sem controle
milhões de cilindradas na mão   (riff)

E|--0-000-0-0-000-0-
Fogo no asfalto
Queimando borracha e metal  (riff)

(refrão)

A|-------------------------------------777-7-8-888-10-10-10-\5----
E|-0-000-000-0-000-555-5-555-000-0-000------------------------000-
Cento e dez, Cento e trinta
megaheats, meia pista
Decibéis, mega bytes
Duzentos e vinte volts

(riff)

(refrão)

Comentários 0

Composição: Dinho Ouro Preto/ Alvin L
Esse não é o compositor? Avise-nos.
Contribuição: Leo CeBoLa's
Consegui tocarAinda não conseguiram tocar essa música. Seja o primeiro!
    Não consegui tocar
    publicidade
    fechar