À Sua Maneira

Capital Inicial

 Capital Inicial
G|--------------------------------------------------
D|------------------------7/4-----------------------
A|-2-2-2--------5-5-5-------------------------------
E|------3-3---------5-5-----------------------------

G|--------------------------------------------------
D|----------------------7---------------------------
A|-2-2-2---------5-5----------------------------------
E|------3-3---------5-------5-----------------------

Solo 1

G|--------------------------------------------------
D|--------------------------------------------------
A|-2-2-4/5---5-5-2-0-----2--2-0-2-------------------
E|-------------------2-5----------------------------

G|--------------------------------------------------
D|-----------------9-7------------------------------
A|-2-2-4/5---5/7--9-9-7--7/9--7-7--7/9-9-9-9-7-5-4-2
E|--------------------------------------------------

Comentários 2

  • gute.nevez gute.nevez: Postado em 28/02/2012 14:35

    aí é só pegar o baixo das notas...

  • djdjova djdjova: Postado em 20/03/2011 01:29

    essa musica é um martin em minha historia como musico

Composição: Dinho Ouro Preto / Peter Gill
Esse não é o compositor? Avise-nos.
Contribuição: vkz Correções: Guilherme e mais 2 »
publicidade
fechar