Belos e Malditos

Capital Inicial

 Capital Inicial
Tom: G
		
De: Alvin L., Renato Russo, Dinho, Loro Jones, Bozo Barretti 



Intr.: G Cadd9


Esse riff é tocado junto com os acordes(G,Cadd9)
E|-3-3-3-3-3-3---------3-3-2---------------3-3-3-3-3-----------3-3-3------------------|
B|-3-3-3-3-3-3---------3-3-3---------------3-3-3-3-3-----------3-3-3------------------|
G|-0-0-0-0-0-0---------0-0-0---------------0-0-0-0-0-----------0-0-0------------------|
D|-0-0-0-0-0-0-----0---2-2-2-2-0---2-0-----0-0-0-0-0-------0---2-2-2-0h2p0----2-0-----|
A|-2-2-2-2-2-2---2---3-3-3-3-----0-----2-0-2-2-2-2-2---0-2---3-3-3-3-------0------2-0-|
E|-3-3-3-3-3-3-3---------------------------3-3-3-3-3-3--------------------------------|


G 
Belos e malditos  
Cadd9
Feitos para o prazer 
G 
Os últimos a sair 
Cadd9 
Os primeiros a morrer 
G 
Belos e malditos 
Cadd9 
Eles ou ninguém 
G 
De carne quase sempre 
Cadd9 
São anjos para alguém 
G                     Cadd9 
São anjos para alguém... 

G Cadd9 G Cadd9 
Riff da vocalização.

E|-3...3s5-5-3-3...3s7-7-5-|
B|-3...3s5-5-3-3...3s7-7-5-|
G|-0...--------0...--------|
D|-0...--------2...--------|
A|-2...--------3...--------|
E|-3...--------------------|




Na hora do (D) tem esse riffzinho
E|-2-2-3-2---3-2----3-2---|
B|-3-3-----3------------3-|
G|-2-2-----------2--------|
D|------------------------|
A|------------------------|
E|------------------------|


Em    Cadd9 
Suave é 
Em    Cadd9 
Suave é 
Em      Cadd9 
A noite é 
Em        Cadd9 D 
De bar em bar 
Cadd9           D 
De bar em bar 
Cadd9 
De bar em bar 


Toda vez que for mudar para(G) tem esse riff
E|-3-------3-|
B|-3-------3-|
G|-0-------0-|
D|-2-0-----0-|
A|-3---2---2-|
E|-------0-3-|


G 
Belos e malditos 
Cadd9 
Culpados por viver 
G
Num mundo feito de tédio 
Cadd9 
Cego para o poder 
G 
Belos e malditos 
Cadd9 
Drama e carnaval 
G 
O lado escuro do paraíso 
Cadd9 
O bem que vem do mal 
G                    Cadd9 
O bem que vem do mal... 

G Cadd9 G Cadd9 
Riff da vocalização.

E|-3...3s5-5-3-3...3s7-7-5-|
B|-3...3s5-5-3-3...3s7-7-5-|
G|-0...--------0...--------|
D|-0...--------2...--------|
A|-2...--------3...--------|
E|-3...--------------------|



Na hora do (D) tem esse riffzinho
E|-2-2-3-2---3-2----3-2---|
B|-3-3-----3------------3-|
G|-2-2-----------2--------|
D|------------------------|
A|------------------------|
E|------------------------|


Em    Cadd9 
Suave é 
Em    Cadd9 
Suave é 
Em      Cadd9 
A noite é 
Em        Cadd9 D 
De bar em bar 
Cadd9           D 
De bar em bar 
Cadd9 
De bar em bar 


Toda vez que for mudar para(G) tem esse riff
E|-3-------3-|
B|-3-------3-|
G|-0-------0-|
D|-2-0-----0-|
A|-3---2---2-|
E|-------0-3-|



Esse riff aparecem junto com os acordes(G,D/F#)
E|-3-3-3-3-3-3-3---------0-----------------0-------|
B|-3-3-3-3-3-3-3-----------3-----------------3-----|
G|-0-0-0-0-0-0-0-------2-----2-----------2-----2---|
D|-0-0-0-0-0-0-0-----0---------0-------0---------0-|
A|-2-2-2-2-2-2-2-----------------------------------|
E|-3-3-3-3-3-3-3--2-----------------2--------------|


(G D/F#)

Em7               Cadd9 
Eles brincam com fogo 
         Em7 
Sabem queimar 
                  Cadd9 
Eles brincam com fogo 
G              D/F# 
Sabem queimar... 
Em7               Cadd9 
Eles brincam com fogo 
         Em7 
Sabem queimar 
                  Cadd9 
Eles brincam com fogo 
G              D/F#    Cadd9
Sabem queimar... 


Na hora do (D) tem esse riffzinho
E|-2-2-3-2---3-2----3-2---|
B|-3-3-----3------------3-|
G|-2-2-----------2--------|
D|------------------------|
A|------------------------|
E|------------------------|


Em    Cadd9 
Suave é 
Em    Cadd9 
Suave é 
Em      Cadd9 
A noite é 
Em        Cadd9 D 
De bar em bar 
Cadd9           D 
De bar em bar 
Cadd9 
De bar em bar 

G Cadd9 G Cadd9 
Riff da vocalização.

E|-3...3s5-5-3-3...3s7-7-5-|
B|-3...3s5-5-3-3...3s7-7-5-|
G|-0...--------0...--------|
D|-0...--------2...--------|
A|-2...--------3...--------|
E|-3...--------------------|


trancrita por:Gabriel Ysllu Chagas
96.528 exibições

Comentários 0

Composição: Diego Ferreira / Joakim Montelius / Kipper Jones / Maurício Manieri / Renato Russo / Slvagem Big Abreu / Wish Bone
Esse não é o compositor? Avise-nos.
Contribuição: Gabriel
Exibir acordes »
publicidade
fechar